  0
SECTION
  2
HEADER
  9
$ACADVER
  1
AC1009
  9
$DWGCODEPAGE
  3
ansi_1252
  9
$INSBASE
 10
0.0
 20
0.0
 30
0.0
  9
$EXTMIN
 10
0.0
 20
0.0
 30
0.0
  9
$EXTMAX
 10
420.0
 20
297.0
 30
0.0
  9
$LIMMIN
 10
0.0
 20
0.0
  9
$LIMMAX
 10
420.0
 20
297.0
  9
$ORTHOMODE
 70
     0
  9
$REGENMODE
 70
     1
  9
$FILLMODE
 70
     1
  9
$QTEXTMODE
 70
     0
  9
$MIRRTEXT
 70
     1
  9
$DRAGMODE
 70
     2
  9
$LTSCALE
 40
1.0
  9
$OSMODE
 70
    37
  9
$ATTMODE
 70
     1
  9
$TEXTSIZE
 40
3.5
  9
$TRACEWID
 40
1.0
  9
$TEXTSTYLE
  7
STANDARD
  9
$CLAYER
  8
0
  9
$CELTYPE
  6
BYLAYER
  9
$CECOLOR
 62
   256
  9
$DIMSCALE
 40
1.0
  9
$DIMASZ
 40
4.0
  9
$DIMEXO
 40
0.0
  9
$DIMDLI
 40
3.75
  9
$DIMRND
 40
0.0
  9
$DIMDLE
 40
0.0
  9
$DIMEXE
 40
2.0
  9
$DIMTP
 40
0.0
  9
$DIMTM
 40
0.0
  9
$DIMTXT
 40
3.5
  9
$DIMCEN
 40
2.5
  9
$DIMTSZ
 40
0.0
  9
$DIMTOL
 70
     0
  9
$DIMLIM
 70
     0
  9
$DIMTIH
 70
     1
  9
$DIMTOH
 70
     1
  9
$DIMSE1
 70
     0
  9
$DIMSE2
 70
     0
  9
$DIMTAD
 70
     1
  9
$DIMZIN
 70
     0
  9
$DIMBLK
  1

  9
$DIMASO
 70
     1
  9
$DIMSHO
 70
     1
  9
$DIMPOST
  1

  9
$DIMAPOST
  1

  9
$DIMALT
 70
     0
  9
$DIMALTD
 70
     3
  9
$DIMALTF
 40
0.0393700787
  9
$DIMLFAC
 40
5.0
  9
$DIMTOFL
 70
     1
  9
$DIMTVP
 40
0.0
  9
$DIMTIX
 70
     0
  9
$DIMSOXD
 70
     0
  9
$DIMSAH
 70
     0
  9
$DIMBLK1
  1

  9
$DIMBLK2
  1

  9
$DIMSTYLE
  2
ISO-25
  9
$DIMCLRD
 70
     0
  9
$DIMCLRE
 70
     0
  9
$DIMCLRT
 70
     0
  9
$DIMTFAC
 40
1.0
  9
$DIMGAP
 40
1.524
  9
$LUNITS
 70
     2
  9
$LUPREC
 70
     2
  9
$SKETCHINC
 40
1.0
  9
$FILLETRAD
 40
10.0
  9
$AUNITS
 70
     0
  9
$AUPREC
 70
     2
  9
$MENU
  1
.
  9
$ELEVATION
 40
0.0
  9
$PELEVATION
 40
0.0
  9
$THICKNESS
 40
0.0
  9
$LIMCHECK
 70
     0
  9
$CHAMFERA
 40
10.0
  9
$CHAMFERB
 40
10.0
  9
$SKPOLY
 70
     0
  9
$TDCREATE
 40
2457802.328147106
  9
$TDUPDATE
 40
2457802.328147315
  9
$TDINDWG
 40
0.0000000116
  9
$TDUSRTIMER
 40
0.0000000116
  9
$USRTIMER
 70
     1
  9
$ANGBASE
 50
0.0
  9
$ANGDIR
 70
     0
  9
$PDMODE
 70
     0
  9
$PDSIZE
 40
-1.0
  9
$PLINEWID
 40
0.0
  9
$COORDS
 70
     1
  9
$SPLFRAME
 70
     0
  9
$SPLINETYPE
 70
     6
  9
$SPLINESEGS
 70
     8
  9
$ATTDIA
 70
     0
  9
$ATTREQ
 70
     1
  9
$HANDLING
 70
     1
  9
$HANDSEED
  5
36A
  9
$SURFTAB1
 70
     6
  9
$SURFTAB2
 70
     6
  9
$SURFTYPE
 70
     6
  9
$SURFU
 70
     6
  9
$SURFV
 70
     6
  9
$UCSNAME
  2

  9
$UCSORG
 10
0.0
 20
0.0
 30
0.0
  9
$UCSXDIR
 10
1.0
 20
0.0
 30
0.0
  9
$UCSYDIR
 10
0.0
 20
1.0
 30
0.0
  9
$PUCSNAME
  2

  9
$PUCSORG
 10
0.0
 20
0.0
 30
0.0
  9
$PUCSXDIR
 10
1.0
 20
0.0
 30
0.0
  9
$PUCSYDIR
 10
0.0
 20
1.0
 30
0.0
  9
$USERI1
 70
     0
  9
$USERI2
 70
     0
  9
$USERI3
 70
     0
  9
$USERI4
 70
     0
  9
$USERI5
 70
     0
  9
$USERR1
 40
0.0
  9
$USERR2
 40
0.0
  9
$USERR3
 40
0.0
  9
$USERR4
 40
0.0
  9
$USERR5
 40
0.0
  9
$WORLDVIEW
 70
     1
  9
$SHADEDGE
 70
     3
  9
$SHADEDIF
 70
    70
  9
$TILEMODE
 70
     1
  9
$MAXACTVP
 70
    64
  9
$PLIMCHECK
 70
     0
  9
$PEXTMIN
 10
1.0000000000E+20
 20
1.0000000000E+20
 30
1.0000000000E+20
  9
$PEXTMAX
 10
-1.0000000000E+20
 20
-1.0000000000E+20
 30
-1.0000000000E+20
  9
$PLIMMIN
 10
0.0
 20
0.0
  9
$PLIMMAX
 10
420.0
 20
297.0
  9
$UNITMODE
 70
     0
  9
$VISRETAIN
 70
     1
  9
$PLINEGEN
 70
     0
  9
$PSLTSCALE
 70
     1
  0
ENDSEC
  0
SECTION
  2
TABLES
  0
TABLE
  2
VPORT
 70
     1
  0
VPORT
  2
*ACTIVE
 70
     0
 10
0.0
 20
0.0
 11
1.0
 21
1.0
 12
210.0
 22
148.5
 13
0.0
 23
0.0
 14
10.0
 24
10.0
 15
10.0
 25
10.0
 16
0.0
 26
0.0
 36
1.0
 17
0.0
 27
0.0
 37
0.0
 40
297.0
 41
1.4141414141
 42
50.0
 43
0.0
 44
0.0
 50
0.0
 51
0.0
 71
     0
 72
  2000
 73
     1
 74
     3
 75
     0
 76
     0
 77
     0
 78
     0
  0
ENDTAB
  0
TABLE
  2
LTYPE
 70
     6
  0
LTYPE
  2
CONTINUOUS
 70
     0
  3
Solid line
 72
    65
 73
     0
 40
0.0
  0
LTYPE
  2
HIDDEN
 70
     0
  3
Hidden __ __ __ __ __ __ __ __ __ __ __ __ __ __
 72
    65
 73
     2
 40
1.905
 49
1.27
 49
-0.635
  0
LTYPE
  2
PHANTOM
 70
     0
  3
Phantom ______  __  __  ______  __  __  ______
 72
    65
 73
     6
 40
12.7
 49
6.35
 49
-1.27
 49
1.27
 49
-1.27
 49
1.27
 49
-1.27
  0
LTYPE
  2
CENTER
 70
     0
  3
Center ____ _ ____ _ ____ _ ____ _ ____ _ ____
 72
    65
 73
     4
 40
10.16
 49
6.35
 49
-1.27
 49
1.27
 49
-1.27
  0
LTYPE
  2
CENTERX2
 70
     0
  3
Center (2x) ________  __  ________  __  _____
 72
    65
 73
     4
 40
20.32
 49
12.7
 49
-2.54
 49
2.54
 49
-2.54
  0
LTYPE
  2
DOT2
 70
     0
  3
Dot (.5x) ........................................
 72
    65
 73
     2
 40
0.635
 49
0.0
 49
-0.635
  0
ENDTAB
  0
TABLE
  2
LAYER
 70
     2
  0
LAYER
  2
0
 70
     0
 62
     7
  6
CONTINUOUS
  0
LAYER
  2
FORMAT
 70
     0
 62
     7
  6
CONTINUOUS
  0
ENDTAB
  0
TABLE
  2
STYLE
 70
     1
  0
STYLE
  2
STANDARD
 70
     0
 40
0.0
 41
1.0
 50
0.0
 71
     0
 42
3.5
  3
txt
  4

  0
ENDTAB
  0
TABLE
  2
VIEW
 70
     0
  0
ENDTAB
  0
TABLE
  2
UCS
 70
     0
  0
ENDTAB
  0
TABLE
  2
APPID
 70
     1
  0
APPID
  2
ACAD
 70
     0
  0
ENDTAB
  0
TABLE
  2
DIMSTYLE
 70
     1
  0
DIMSTYLE
  2
ISO-25
 70
     0
  3

  4

  5

  6

  7

 40
1.0
 41
2.5
 42
0.625
 43
3.75
 44
1.25
 45
0.0
 46
0.0
 47
0.0
 48
0.0
140
2.5
141
2.5
142
0.0
143
0.0393700787
144
1.0
145
0.0
146
1.0
147
0.625
 71
     0
 72
     0
 73
     0
 74
     0
 75
     0
 76
     0
 77
     1
 78
     8
170
     0
171
     3
172
     1
173
     0
174
     0
175
     0
176
     0
177
     0
178
     0
  0
ENDTAB
  0
ENDSEC
  0
SECTION
  2
BLOCKS
  0
BLOCK
  8
0
  2
$MODEL_SPACE
 70
     0
 10
0.0
 20
0.0
 30
0.0
  3
$MODEL_SPACE
  1

  0
ENDBLK
  5
21
  8
0
  0
BLOCK
 67
     1
  8
0
  2
$PAPER_SPACE
 70
     0
 10
0.0
 20
0.0
 30
0.0
  3
$PAPER_SPACE
  1

  0
ENDBLK
  5
1D
 67
     1
  8
0
  0
ENDSEC
  0
SECTION
  2
ENTITIES
  0
LINE
  5
45
  8
0
  6
CONTINUOUS
 62
     7
 10
32.6181485624
 20
187.8540602978
 30
0.0
 11
49.0181485624
 21
187.8540602978
 31
0.0
  0
LINE
  5
46
  8
0
  6
CONTINUOUS
 62
     7
 10
49.0181485624
 20
200.0540602978
 30
0.0
 11
33.4181485624
 21
200.0540602978
 31
0.0
  0
LINE
  5
47
  8
0
  6
CONTINUOUS
 62
     7
 10
47.5170672239
 20
202.3732085989
 30
0.0
 11
47.5811362269
 21
202.3732085989
 31
0.0
  0
LINE
  5
48
  8
0
  6
CONTINUOUS
 62
     7
 10
107.2181485624
 20
200.0540602978
 30
0.0
 11
91.6181485624
 21
200.0540602978
 31
0.0
  0
LINE
  5
49
  8
0
  6
CONTINUOUS
 62
     7
 10
91.6181485624
 20
187.8540602978
 30
0.0
 11
108.0181485624
 21
187.8540602978
 31
0.0
  0
LINE
  5
4A
  8
0
  6
CONTINUOUS
 62
     7
 10
93.0551608978
 20
202.3732085989
 30
0.0
 11
93.1192299009
 21
202.3732085989
 31
0.0
  0
LINE
  5
4B
  8
0
  6
CONTINUOUS
 62
     7
 10
111.7181485624
 20
200.3540602978
 30
0.0
 11
108.3181485624
 21
200.3540602978
 31
0.0
  0
LINE
  5
4C
  8
0
  6
CONTINUOUS
 62
     7
 10
108.3181485624
 20
199.9540602978
 30
0.0
 11
108.0181485624
 21
199.9540602978
 31
0.0
  0
LINE
  5
4D
  8
0
  6
CONTINUOUS
 62
     7
 10
91.6181485624
 20
199.9540602978
 30
0.0
 11
90.9181485624
 21
199.9540602978
 31
0.0
  0
LINE
  5
4E
  8
0
  6
CONTINUOUS
 62
     7
 10
90.9181485624
 20
187.9540602978
 30
0.0
 11
91.6181485624
 21
187.9540602978
 31
0.0
  0
LINE
  5
4F
  8
0
  6
CONTINUOUS
 62
     7
 10
108.0181485624
 20
187.9540602978
 30
0.0
 11
108.3181485624
 21
187.9540602978
 31
0.0
  0
LINE
  5
50
  8
0
  6
CONTINUOUS
 62
     7
 10
32.3181485624
 20
200.3540602978
 30
0.0
 11
28.9181485624
 21
200.3540602978
 31
0.0
  0
LINE
  5
51
  8
0
  6
CONTINUOUS
 62
     7
 10
32.3181485624
 20
187.9540602978
 30
0.0
 11
32.6181485624
 21
187.9540602978
 31
0.0
  0
LINE
  5
52
  8
0
  6
CONTINUOUS
 62
     7
 10
49.0181485624
 20
187.9540602978
 30
0.0
 11
49.7181485624
 21
187.9540602978
 31
0.0
  0
LINE
  5
53
  8
0
  6
CONTINUOUS
 62
     7
 10
49.7181485624
 20
199.9540602978
 30
0.0
 11
49.0181485624
 21
199.9540602978
 31
0.0
  0
LINE
  5
54
  8
0
  6
CONTINUOUS
 62
     7
 10
32.6181485624
 20
199.9540602978
 30
0.0
 11
32.3181485624
 21
199.9540602978
 31
0.0
  0
ARC
  5
55
  8
0
  6
CONTINUOUS
 62
     7
 10
70.3181485624
 20
272.0888519931
 30
0.0
 40
73.90747142425877
 50
244.5760623587
 51
295.4239376413
  0
LINE
  5
56
  8
0
  6
CONTINUOUS
 62
     7
 10
38.805647856
 20
271.4894749437
 30
0.0
 11
38.9149850622
 21
271.4998303342
 31
0.0
  0
LINE
  5
57
  8
0
  6
CONTINUOUS
 62
     7
 10
101.7213120625
 20
271.4998303342
 30
0.0
 11
101.8306492688
 21
271.4894749437
 31
0.0
  0
ARC
  5
58
  8
0
  6
CONTINUOUS
 62
     7
 10
70.3181485624
 20
-60.6628048363
 30
0.0
 40
333.6437840929104
 50
84.580361882
 51
95.419638118
  0
POLYLINE
  5
59
  8
0
  6
CONTINUOUS
 62
     7
 66
     1
 10
0.0
 20
0.0
 30
0.0
  0
VERTEX
  5
1C1
  8
0
  6
CONTINUOUS
 62
     7
 10
102.0475497695
 20
205.3388755017
 30
0.0
  0
VERTEX
  5
1C2
  8
0
  6
CONTINUOUS
 62
     7
 10
103.0484079969
 20
205.9226670495
 30
0.0
  0
VERTEX
  5
1C3
  8
0
  6
CONTINUOUS
 62
     7
 10
103.5416909953
 20
206.3355434589
 30
0.0
  0
SEQEND
  5
369
  8
0
  6
CONTINUOUS
 62
     7
  0
POLYLINE
  5
5A
  8
0
  6
CONTINUOUS
 62
     7
 66
     1
 10
0.0
 20
0.0
 30
0.0
  0
VERTEX
  5
1C4
  8
0
  6
CONTINUOUS
 62
     7
 10
37.0790314466
 20
206.3496061929
 30
0.0
  0
VERTEX
  5
1C5
  8
0
  6
CONTINUOUS
 62
     7
 10
37.4556078073
 20
206.0177894535
 30
0.0
  0
VERTEX
  5
1C6
  8
0
  6
CONTINUOUS
 62
     7
 10
38.5887473552
 20
205.3388755017
 30
0.0
  0
SEQEND
  5
368
  8
0
  6
CONTINUOUS
 62
     7
  0
LINE
  5
5B
  8
0
  6
CONTINUOUS
 62
     7
 10
32.7181485624
 20
242.9824537043
 30
0.0
 11
32.7212109869
 21
241.9540602978
 31
0.0
  0
LINE
  5
5C
  8
0
  6
CONTINUOUS
 62
     7
 10
32.7181485624
 20
252.9818204367
 30
0.0
 11
32.7181485624
 21
242.9824537034
 31
0.0
  0
POLYLINE
  5
5D
  8
0
  6
CONTINUOUS
 62
     7
 66
     1
 10
0.0
 20
0.0
 30
0.0
  0
VERTEX
  5
1C7
  8
0
  6
CONTINUOUS
 62
     7
 10
32.7180773355
 20
264.6430232089
 30
0.0
  0
VERTEX
  5
1C8
  8
0
  6
CONTINUOUS
 62
     7
 10
32.7181115428
 20
263.438718931
 30
0.0
  0
VERTEX
  5
1C9
  8
0
  6
CONTINUOUS
 62
     7
 10
32.7182438121
 20
262.22513858
 30
0.0
  0
VERTEX
  5
1CA
  8
0
  6
CONTINUOUS
 62
     7
 10
32.718691808
 20
259.9200079951
 30
0.0
  0
VERTEX
  5
1CB
  8
0
  6
CONTINUOUS
 62
     7
 10
32.7190825767
 20
257.6120776558
 30
0.0
  0
VERTEX
  5
1CC
  8
0
  6
CONTINUOUS
 62
     7
 10
32.7181458307
 20
252.9818204275
 30
0.0
  0
SEQEND
  5
367
  8
0
  6
CONTINUOUS
 62
     7
  0
ARC
  5
5E
  8
0
  6
CONTINUOUS
 62
     7
 10
39.4769058439
 20
264.762966221
 30
0.0
 40
6.759919147774814
 50
95.6988462999
 51
181.0166640878
  0
ARC
  5
5F
  8
0
  6
CONTINUOUS
 62
     7
 10
101.1653689737
 20
264.7682988227
 30
0.0
 40
6.754021492493398
 50
358.945309123
 51
84.3471210167
  0
POLYLINE
  5
60
  8
0
  6
CONTINUOUS
 62
     7
 66
     1
 10
0.0
 20
0.0
 30
0.0
  0
VERTEX
  5
1CD
  8
0
  6
CONTINUOUS
 62
     7
 10
107.9163312254
 20
241.9540602978
 30
0.0
  0
VERTEX
  5
1CE
  8
0
  6
CONTINUOUS
 62
     7
 10
107.9181485624
 20
242.9824537051
 30
0.0
  0
VERTEX
  5
1CF
  8
0
  6
CONTINUOUS
 62
     7
 10
107.9217111554
 20
245.4129842907
 30
0.0
  0
VERTEX
  5
1D0
  8
0
  6
CONTINUOUS
 62
     7
 10
107.9203031364
 20
250.2742646791
 30
0.0
  0
VERTEX
  5
1D1
  8
0
  6
CONTINUOUS
 62
     7
 10
107.9179123477
 20
253.86612864
 30
0.0
  0
VERTEX
  5
1D2
  8
0
  6
CONTINUOUS
 62
     7
 10
107.9171995843
 20
257.4575158392
 30
0.0
  0
VERTEX
  5
1D3
  8
0
  6
CONTINUOUS
 62
     7
 10
107.917561275
 20
259.8607582013
 30
0.0
  0
VERTEX
  5
1D4
  8
0
  6
CONTINUOUS
 62
     7
 10
107.9180055219
 20
262.2624424668
 30
0.0
  0
VERTEX
  5
1D5
  8
0
  6
CONTINUOUS
 62
     7
 10
107.9182197873
 20
264.6439785895
 30
0.0
  0
SEQEND
  5
366
  8
0
  6
CONTINUOUS
 62
     7
  0
LINE
  5
61
  8
0
  6
CONTINUOUS
 62
     7
 10
38.8682798308
 20
205.2148730518
 30
0.0
 11
38.9855486534
 21
205.1516882862
 31
0.0
  0
LINE
  5
62
  8
0
  6
CONTINUOUS
 62
     7
 10
101.6507484713
 20
205.1516882862
 30
0.0
 11
101.7361274085
 21
205.1977001999
 31
0.0
  0
LINE
  5
63
  8
0
  6
CONTINUOUS
 62
     7
 10
102.0647371458
 20
271.449816785
 30
0.0
 11
101.7213117072
 21
271.4998303185
 31
0.0
  0
LINE
  5
64
  8
0
  6
CONTINUOUS
 62
     7
 10
32.6181485624
 20
194.9546003348
 30
0.0
 11
33.4181485624
 21
194.9546003348
 31
0.0
  0
LINE
  5
65
  8
0
  6
CONTINUOUS
 62
     7
 10
49.0181485624
 20
187.8540602978
 30
0.0
 11
49.0181485624
 21
200.0540602978
 31
0.0
  0
LINE
  5
66
  8
0
  6
CONTINUOUS
 62
     7
 10
32.6181485624
 20
187.8540602978
 30
0.0
 11
32.6181485624
 21
194.9546003348
 31
0.0
  0
LINE
  5
67
  8
0
  6
CONTINUOUS
 62
     7
 10
33.4181485624
 20
194.9546003348
 30
0.0
 11
33.4181485624
 21
240.4971793826
 31
0.0
  0
LINE
  5
68
  8
0
  6
CONTINUOUS
 62
     7
 10
32.6181485624
 20
194.9546003348
 30
0.0
 11
32.6181485624
 21
240.4971793826
 31
0.0
  0
LINE
  5
69
  8
0
  6
CONTINUOUS
 62
     7
 10
33.4181485624
 20
241.9540602978
 30
0.0
 11
32.6181485624
 21
241.9540602978
 31
0.0
  0
LINE
  5
6A
  8
0
  6
CONTINUOUS
 62
     7
 10
33.4181485624
 20
240.4971793826
 30
0.0
 11
33.4181485624
 21
241.9540602978
 31
0.0
  0
LINE
  5
6B
  8
0
  6
CONTINUOUS
 62
     7
 10
32.6181485624
 20
240.4971793826
 30
0.0
 11
32.6181485624
 21
241.9540602978
 31
0.0
  0
ARC
  5
6C
  8
0
  6
CONTINUOUS
 62
     7
 10
35.7663628597
 20
239.9662961687
 30
0.0
 40
1.987802732944951
 50
359.6473150085
 51
89.6429186891
  0
LINE
  5
6D
  8
0
  6
CONTINUOUS
 62
     7
 10
37.7541279335
 20
232.7918528359
 30
0.0
 11
37.7541279335
 21
239.9540602978
 31
0.0
  0
ARC
  5
6E
  8
0
  6
CONTINUOUS
 62
     7
 10
67.8823593049
 20
232.7431235982
 30
0.0
 40
30.12827077859251
 50
179.9073301983
 51
232.1234870921
  0
ARC
  5
6F
  8
0
  6
CONTINUOUS
 62
     7
 10
48.2864900917
 20
207.5536192324
 30
0.0
 40
1.785821909466988
 50
333.9117412141
 51
52.0486920916
  0
POLYLINE
  5
70
  8
0
  6
CONTINUOUS
 62
     7
 66
     1
 10
0.0
 20
0.0
 30
0.0
  0
VERTEX
  5
1D6
  8
0
  6
CONTINUOUS
 62
     7
 10
48.6724564789
 20
203.3056487921
 30
0.0
  0
VERTEX
  5
1D7
  8
0
  6
CONTINUOUS
 62
     7
 10
49.1810449962
 20
205.073159514
 30
0.0
  0
VERTEX
  5
1D8
  8
0
  6
CONTINUOUS
 62
     7
 10
49.8903683764
 20
206.7682948788
 30
0.0
  0
SEQEND
  5
365
  8
0
  6
CONTINUOUS
 62
     7
  0
ARC
  5
71
  8
0
  6
CONTINUOUS
 62
     7
 10
47.5156658801
 20
203.5584081926
 30
0.0
 40
1.184082684676567
 50
252.0746437796
 51
347.6745523093
  0
POLYLINE
  5
72
  8
0
  6
CONTINUOUS
 62
     7
 66
     1
 10
0.0
 20
0.0
 30
0.0
  0
VERTEX
  5
1D9
  8
0
  6
CONTINUOUS
 62
     7
 10
39.0245596048
 20
205.6332813053
 30
0.0
  0
VERTEX
  5
1DA
  8
0
  6
CONTINUOUS
 62
     7
 10
43.0486043998
 20
203.9124205134
 30
0.0
  0
VERTEX
  5
1DB
  8
0
  6
CONTINUOUS
 62
     7
 10
47.1512316166
 20
202.431802906
 30
0.0
  0
SEQEND
  5
364
  8
0
  6
CONTINUOUS
 62
     7
  0
LINE
  5
73
  8
0
  6
CONTINUOUS
 62
     7
 10
38.0442499822
 20
206.2056309768
 30
0.0
 11
39.0245596048
 21
205.6332813053
 31
0.0
  0
ARC
  5
74
  8
0
  6
CONTINUOUS
 62
     7
 10
37.3586249438
 20
205.2392825775
 30
0.0
 40
1.184867470300919
 50
54.6442656988
 51
180.6188579482
  0
LINE
  5
75
  8
0
  6
CONTINUOUS
 62
     7
 10
36.1738265885
 20
200.0540602978
 30
0.0
 11
36.1738265885
 21
205.2264849439
 31
0.0
  0
LINE
  5
76
  8
0
  6
CONTINUOUS
 62
     7
 10
35.7787512523
 20
241.9540602978
 30
0.0
 11
33.4181485624
 21
241.9540602978
 31
0.0
  0
ARC
  5
77
  8
0
  6
CONTINUOUS
 62
     7
 10
37.4898326963
 20
205.2356048077
 30
0.0
 40
1.190893456218591
 50
90.2709908499
 51
180.4387754525
  0
LINE
  5
78
  8
0
  6
CONTINUOUS
 62
     7
 10
35.8627490755
 20
241.9540602978
 30
0.0
 11
35.7787512523
 21
241.9540602978
 31
0.0
  0
LINE
  5
79
  8
0
  6
CONTINUOUS
 62
     7
 10
36.2989741606
 20
200.0540602978
 30
0.0
 11
36.2989741606
 21
205.2264849439
 31
0.0
  0
LINE
  5
7A
  8
0
  6
CONTINUOUS
 62
     7
 10
108.0181485624
 20
194.9546003348
 30
0.0
 11
107.2181485624
 21
194.9546003348
 31
0.0
  0
LINE
  5
7B
  8
0
  6
CONTINUOUS
 62
     7
 10
91.6181485624
 20
200.0540602978
 30
0.0
 11
91.6181485624
 21
187.8540602978
 31
0.0
  0
LINE
  5
7C
  8
0
  6
CONTINUOUS
 62
     7
 10
108.0181485624
 20
194.9546003348
 30
0.0
 11
108.0181485624
 21
187.8540602978
 31
0.0
  0
LINE
  5
7D
  8
0
  6
CONTINUOUS
 62
     7
 10
107.2181485624
 20
240.4971793826
 30
0.0
 11
107.2181485624
 21
194.9546003348
 31
0.0
  0
LINE
  5
7E
  8
0
  6
CONTINUOUS
 62
     7
 10
108.0181485624
 20
240.4971793826
 30
0.0
 11
108.0181485624
 21
194.9546003348
 31
0.0
  0
LINE
  5
7F
  8
0
  6
CONTINUOUS
 62
     7
 10
108.0181485624
 20
241.9540602978
 30
0.0
 11
107.2181485624
 21
241.9540602978
 31
0.0
  0
LINE
  5
80
  8
0
  6
CONTINUOUS
 62
     7
 10
107.2181485624
 20
241.9540602978
 30
0.0
 11
107.2181485624
 21
240.4971793826
 31
0.0
  0
LINE
  5
81
  8
0
  6
CONTINUOUS
 62
     7
 10
108.0181485624
 20
241.9540602978
 30
0.0
 11
108.0181485624
 21
240.4971793826
 31
0.0
  0
ARC
  5
82
  8
0
  6
CONTINUOUS
 62
     7
 10
99.0795930558
 20
211.0959928091
 30
0.0
 40
6.021044142208407
 50
294.8692571923
 51
305.6874240937
  0
ARC
  5
83
  8
0
  6
CONTINUOUS
 62
     7
 10
69.873246874
 20
274.2834938813
 30
0.0
 40
75.63189456322978
 50
288.1914969392
 51
294.8121303837
  0
ARC
  5
84
  8
0
  6
CONTINUOUS
 62
     7
 10
93.1206312447
 20
203.5584081926
 30
0.0
 40
1.184082684677227
 50
192.3254476907
 51
287.9253562176
  0
ARC
  5
85
  8
0
  6
CONTINUOUS
 62
     7
 10
76.5139686356
 20
199.8169961904
 30
0.0
 40
15.83885229768496
 50
12.7242562685
 51
26.0322138477
  0
ARC
  5
86
  8
0
  6
CONTINUOUS
 62
     7
 10
92.3498070331
 20
207.5536192324
 30
0.0
 40
1.785821909466992
 50
127.9513079084
 51
206.0882587859
  0
ARC
  5
87
  8
0
  6
CONTINUOUS
 62
     7
 10
72.7606448242
 20
232.7398501405
 30
0.0
 40
30.12156925657936
 50
307.8702656703
 51
0.0989170393
  0
LINE
  5
88
  8
0
  6
CONTINUOUS
 62
     7
 10
102.8821691913
 20
239.9540602978
 30
0.0
 11
102.8821691913
 21
232.7918528359
 31
0.0
  0
ARC
  5
89
  8
0
  6
CONTINUOUS
 62
     7
 10
104.8699342651
 20
239.9662961687
 30
0.0
 40
1.987802732945047
 50
90.3570813109
 51
180.3526849915
  0
LINE
  5
8A
  8
0
  6
CONTINUOUS
 62
     7
 10
107.2181485624
 20
241.9540602978
 30
0.0
 11
104.8575458725
 21
241.9540602978
 31
0.0
  0
LINE
  5
8B
  8
0
  6
CONTINUOUS
 62
     7
 10
104.4624705362
 20
205.2264849439
 30
0.0
 11
104.4624705362
 21
200.0540602978
 31
0.0
  0
ARC
  5
8C
  8
0
  6
CONTINUOUS
 62
     7
 10
103.2773501544
 20
205.2386674231
 30
0.0
 40
1.185182995268631
 50
359.4110471214
 51
125.3258292316
  0
ARC
  5
8D
  8
0
  6
CONTINUOUS
 62
     7
 10
103.1434489505
 20
205.2330456277
 30
0.0
 40
1.193892039981196
 50
359.6851462501
 51
86.5799819557
  0
LINE
  5
8E
  8
0
  6
CONTINUOUS
 62
     7
 10
104.8575458725
 20
241.9540602978
 30
0.0
 11
104.7735480493
 21
241.9540602978
 31
0.0
  0
LINE
  5
8F
  8
0
  6
CONTINUOUS
 62
     7
 10
104.3373229642
 20
205.2264849439
 30
0.0
 11
104.3373229642
 21
200.0540602978
 31
0.0
  0
LINE
  5
90
  8
0
  6
CONTINUOUS
 62
     7
 10
111.7181485624
 20
200.3540602978
 30
0.0
 11
111.7181485624
 21
191.1968276371
 31
0.0
  0
LINE
  5
91
  8
0
  6
CONTINUOUS
 62
     7
 10
108.3181485624
 20
200.3540602978
 30
0.0
 11
108.3181485624
 21
191.1968276371
 31
0.0
  0
LINE
  5
92
  8
0
  6
CONTINUOUS
 62
     7
 10
90.9181485624
 20
199.9540602978
 30
0.0
 11
90.9181485624
 21
187.9540602978
 31
0.0
  0
LINE
  5
93
  8
0
  6
CONTINUOUS
 62
     7
 10
101.9181485624
 20
182.3540602978
 30
0.0
 11
101.9181485624
 21
183.3540602978
 31
0.0
  0
LINE
  5
94
  8
0
  6
CONTINUOUS
 62
     7
 10
101.9181485624
 20
183.3540602978
 30
0.0
 11
111.7181485624
 21
183.3540602978
 31
0.0
  0
LINE
  5
95
  8
0
  6
CONTINUOUS
 62
     7
 10
111.7181485624
 20
183.3540602978
 30
0.0
 11
111.7181485624
 21
182.3540602978
 31
0.0
  0
CIRCLE
  5
96
  8
0
  6
CONTINUOUS
 62
     7
 10
107.8181485624
 20
176.7540602978
 30
0.0
 40
1.099999999999994
  0
ARC
  5
97
  8
0
  6
CONTINUOUS
 62
     7
 10
109.7181485624
 20
174.3540602978
 30
0.0
 40
2.0
 50
270.0
 51
0.0
  0
LINE
  5
98
  8
0
  6
CONTINUOUS
 62
     7
 10
109.7181485624
 20
172.3540602978
 30
0.0
 11
103.9181485624
 21
172.3540602978
 31
0.0
  0
LINE
  5
99
  8
0
  6
CONTINUOUS
 62
     7
 10
101.9181485624
 20
174.3540602978
 30
0.0
 11
101.9181485624
 21
182.3540602978
 31
0.0
  0
ARC
  5
9A
  8
0
  6
CONTINUOUS
 62
     7
 10
103.9181485624
 20
174.3540602978
 30
0.0
 40
2.0
 50
180.0
 51
270.0
  0
LINE
  5
9B
  8
0
  6
CONTINUOUS
 62
     7
 10
111.7181485624
 20
174.3540602978
 30
0.0
 11
111.7181485624
 21
182.3540602978
 31
0.0
  0
LINE
  5
9C
  8
0
  6
CONTINUOUS
 62
     7
 10
111.7181485624
 20
191.1968276371
 30
0.0
 11
111.7181485624
 21
186.8886516047
 31
0.0
  0
LINE
  5
9D
  8
0
  6
CONTINUOUS
 62
     7
 10
108.3181485624
 20
186.8886516047
 30
0.0
 11
108.3181485624
 21
191.1968276371
 31
0.0
  0
LINE
  5
9E
  8
0
  6
CONTINUOUS
 62
     7
 10
111.7181485624
 20
186.8886516047
 30
0.0
 11
111.7181485624
 21
183.3540602978
 31
0.0
  0
LINE
  5
9F
  8
0
  6
CONTINUOUS
 62
     7
 10
108.3181485624
 20
186.8886516047
 30
0.0
 11
108.3181485624
 21
183.3540602978
 31
0.0
  0
LINE
  5
A0
  8
0
  6
CONTINUOUS
 62
     7
 10
32.3181485624
 20
200.3540602978
 30
0.0
 11
32.3181485624
 21
191.1968276371
 31
0.0
  0
LINE
  5
A1
  8
0
  6
CONTINUOUS
 62
     7
 10
28.9181485624
 20
200.3540602978
 30
0.0
 11
28.9181485624
 21
191.1968276371
 31
0.0
  0
LINE
  5
A2
  8
0
  6
CONTINUOUS
 62
     7
 10
49.7181485624
 20
199.9540602978
 30
0.0
 11
49.7181485624
 21
187.9540602978
 31
0.0
  0
CIRCLE
  5
A3
  8
0
  6
CONTINUOUS
 62
     7
 10
32.8181485624
 20
176.7540602978
 30
0.0
 40
1.100000000000001
  0
LINE
  5
A4
  8
0
  6
CONTINUOUS
 62
     7
 10
36.7181485624
 20
172.3540602978
 30
0.0
 11
30.9181485624
 21
172.3540602978
 31
0.0
  0
ARC
  5
A5
  8
0
  6
CONTINUOUS
 62
     7
 10
30.9181485624
 20
174.3540602978
 30
0.0
 40
2.0
 50
180.0
 51
270.0
  0
LINE
  5
A6
  8
0
  6
CONTINUOUS
 62
     7
 10
38.7181485624
 20
182.3540602978
 30
0.0
 11
38.7181485624
 21
174.3540602978
 31
0.0
  0
ARC
  5
A7
  8
0
  6
CONTINUOUS
 62
     7
 10
36.7181485624
 20
174.3540602978
 30
0.0
 40
2.000000000000007
 50
270.0
 51
0.0
  0
LINE
  5
A8
  8
0
  6
CONTINUOUS
 62
     7
 10
28.9181485624
 20
174.3540602978
 30
0.0
 11
28.9181485624
 21
182.3540602978
 31
0.0
  0
LINE
  5
A9
  8
0
  6
CONTINUOUS
 62
     7
 10
28.9181485624
 20
183.3540602978
 30
0.0
 11
38.7181485624
 21
183.3540602978
 31
0.0
  0
LINE
  5
AA
  8
0
  6
CONTINUOUS
 62
     7
 10
38.7181485624
 20
183.3540602978
 30
0.0
 11
38.7181485624
 21
182.3540602978
 31
0.0
  0
LINE
  5
AB
  8
0
  6
CONTINUOUS
 62
     7
 10
28.9181485624
 20
182.3540602978
 30
0.0
 11
28.9181485624
 21
183.3540602978
 31
0.0
  0
LINE
  5
AC
  8
0
  6
CONTINUOUS
 62
     7
 10
32.3181485624
 20
191.1968276371
 30
0.0
 11
32.3181485624
 21
186.8886516047
 31
0.0
  0
LINE
  5
AD
  8
0
  6
CONTINUOUS
 62
     7
 10
28.9181485624
 20
186.8886516047
 30
0.0
 11
28.9181485624
 21
191.1968276371
 31
0.0
  0
LINE
  5
AE
  8
0
  6
CONTINUOUS
 62
     7
 10
32.3181485624
 20
186.8886516047
 30
0.0
 11
32.3181485624
 21
183.3540602978
 31
0.0
  0
LINE
  5
AF
  8
0
  6
CONTINUOUS
 62
     7
 10
28.9181485624
 20
186.8886516047
 30
0.0
 11
28.9181485624
 21
183.3540602978
 31
0.0
  0
LINE
  5
B0
  8
0
  6
CONTINUOUS
 62
     7
 10
63.1452177356
 20
108.5540602978
 30
0.0
 11
66.903864277
 21
108.5540602978
 31
0.0
  0
LINE
  5
B1
  8
0
  6
CONTINUOUS
 62
     7
 10
66.903864277
 20
107.3540602978
 30
0.0
 11
63.1452177356
 21
107.3540602978
 31
0.0
  0
LINE
  5
B2
  8
0
  6
CONTINUOUS
 62
     7
 10
77.4910793891
 20
107.3540602978
 30
0.0
 11
73.7324328478
 21
107.3540602978
 31
0.0
  0
LINE
  5
B3
  8
0
  6
CONTINUOUS
 62
     7
 10
73.7324328478
 20
108.5540602978
 30
0.0
 11
77.4910793891
 21
108.5540602978
 31
0.0
  0
LINE
  5
B4
  8
0
  6
CONTINUOUS
 62
     7
 10
66.903864277
 20
107.3540602978
 30
0.0
 11
73.7324328478
 21
107.3540602978
 31
0.0
  0
LINE
  5
B5
  8
0
  6
CONTINUOUS
 62
     7
 10
66.903864277
 20
108.5540602978
 30
0.0
 11
73.7324328478
 21
108.5540602978
 31
0.0
  0
LINE
  5
B6
  8
0
  6
CONTINUOUS
 62
     7
 10
58.3181485624
 20
107.3540602978
 30
0.0
 11
58.3181485624
 21
108.5540602978
 31
0.0
  0
LINE
  5
B7
  8
0
  6
CONTINUOUS
 62
     7
 10
58.3181485624
 20
107.3540602978
 30
0.0
 11
63.1452177356
 21
107.3540602978
 31
0.0
  0
LINE
  5
B8
  8
0
  6
CONTINUOUS
 62
     7
 10
63.1452177356
 20
108.5540602978
 30
0.0
 11
58.3181485624
 21
108.5540602978
 31
0.0
  0
LINE
  5
B9
  8
0
  6
CONTINUOUS
 62
     7
 10
82.3181485624
 20
107.3540602978
 30
0.0
 11
82.3181485624
 21
108.5540602978
 31
0.0
  0
LINE
  5
BA
  8
0
  6
CONTINUOUS
 62
     7
 10
77.4910793891
 20
107.3540602978
 30
0.0
 11
82.3181485624
 21
107.3540602978
 31
0.0
  0
LINE
  5
BB
  8
0
  6
CONTINUOUS
 62
     7
 10
82.3181485624
 20
108.5540602978
 30
0.0
 11
77.4910793891
 21
108.5540602978
 31
0.0
  0
LINE
  5
BC
  8
0
  6
CONTINUOUS
 62
     7
 10
27.1181485624
 20
182.5540602978
 30
0.0
 11
28.9181485624
 21
182.5540602978
 31
0.0
  0
LINE
  5
BD
  8
0
  6
CONTINUOUS
 62
     7
 10
38.7181485624
 20
182.5540602978
 30
0.0
 11
101.9181485624
 21
182.5540602978
 31
0.0
  0
LINE
  5
BE
  8
0
  6
CONTINUOUS
 62
     7
 10
111.7181485624
 20
182.5540602978
 30
0.0
 11
113.5181485624
 21
182.5540602978
 31
0.0
  0
LINE
  5
BF
  8
0
  6
CONTINUOUS
 62
     7
 10
26.7181485624
 20
173.5540602978
 30
0.0
 11
26.7181485624
 21
181.5540602978
 31
0.0
  0
LINE
  5
C0
  8
0
  6
CONTINUOUS
 62
     7
 10
26.7181485624
 20
172.9540602978
 30
0.0
 11
26.7181485624
 21
173.5540602978
 31
0.0
  0
ARC
  5
C1
  8
0
  6
CONTINUOUS
 62
     7
 10
27.1181485624
 20
172.9540602978
 30
0.0
 40
0.4000000000000057
 50
180.0
 51
270.0
  0
LINE
  5
C2
  8
0
  6
CONTINUOUS
 62
     7
 10
74.3181485624
 20
173.5540602978
 30
0.0
 11
75.3181485624
 21
172.5540602978
 31
0.0
  0
LINE
  5
C3
  8
0
  6
CONTINUOUS
 62
     7
 10
113.5181485624
 20
172.5540602978
 30
0.0
 11
110.5899283511
 21
172.5540602978
 31
0.0
  0
LINE
  5
C4
  8
0
  6
CONTINUOUS
 62
     7
 10
103.0463687737
 20
172.5540602978
 30
0.0
 11
75.3181485624
 21
172.5540602978
 31
0.0
  0
LINE
  5
C5
  8
0
  6
CONTINUOUS
 62
     7
 10
113.9181485624
 20
173.5540602978
 30
0.0
 11
113.9181485624
 21
172.9540602978
 31
0.0
  0
ARC
  5
C6
  8
0
  6
CONTINUOUS
 62
     7
 10
113.5181485624
 20
172.9540602978
 30
0.0
 40
0.4000000000000341
 50
270.0
 51
0.0
  0
LINE
  5
C7
  8
0
  6
CONTINUOUS
 62
     7
 10
113.9181485624
 20
182.1540602978
 30
0.0
 11
113.9181485624
 21
181.5540602978
 31
0.0
  0
ARC
  5
C8
  8
0
  6
CONTINUOUS
 62
     7
 10
113.5181485624
 20
182.1540602978
 30
0.0
 40
0.4000000000000057
 50
0.0
 51
90.0
  0
LINE
  5
C9
  8
0
  6
CONTINUOUS
 62
     7
 10
113.9181485624
 20
181.5540602978
 30
0.0
 11
113.9181485624
 21
173.5540602978
 31
0.0
  0
CIRCLE
  5
CA
  8
0
  6
CONTINUOUS
 62
     7
 10
107.8181485624
 20
176.7540602978
 30
0.0
 40
1.049999999999997
  0
CIRCLE
  5
CB
  8
0
  6
CONTINUOUS
 62
     7
 10
32.8181485624
 20
176.7540602978
 30
0.0
 40
1.050000000000004
  0
LINE
  5
CC
  8
0
  6
CONTINUOUS
 62
     7
 10
75.3181485624
 20
172.5540602978
 30
0.0
 11
75.3181485624
 21
108.5540602978
 31
0.0
  0
LINE
  5
CD
  8
0
  6
CONTINUOUS
 62
     7
 10
65.3181485624
 20
172.5540602978
 30
0.0
 11
66.3181485624
 21
173.5540602978
 31
0.0
  0
LINE
  5
CE
  8
0
  6
CONTINUOUS
 62
     7
 10
65.3181485624
 20
172.5540602978
 30
0.0
 11
37.5899283511
 21
172.5540602978
 31
0.0
  0
LINE
  5
CF
  8
0
  6
CONTINUOUS
 62
     7
 10
30.0463687737
 20
172.5540602978
 30
0.0
 11
27.1181485624
 21
172.5540602978
 31
0.0
  0
LINE
  5
D0
  8
0
  6
CONTINUOUS
 62
     7
 10
65.3181485624
 20
108.5540602978
 30
0.0
 11
65.3181485624
 21
172.5540602978
 31
0.0
  0
LINE
  5
D1
  8
0
  6
CONTINUOUS
 62
     7
 10
26.7181485624
 20
181.5540602978
 30
0.0
 11
26.7181485624
 21
182.1540602978
 31
0.0
  0
ARC
  5
D2
  8
0
  6
CONTINUOUS
 62
     7
 10
27.1181485624
 20
182.1540602978
 30
0.0
 40
0.3999999999999986
 50
90.0
 51
180.0
  0
POLYLINE
  5
D3
  8
0
  6
CONTINUOUS
 62
     7
 66
     1
 10
0.0
 20
0.0
 30
0.0
  0
VERTEX
  5
1DC
  8
0
  6
CONTINUOUS
 62
     7
 10
358.4256214768
 20
194.7985347265
 30
0.0
  0
VERTEX
  5
1DD
  8
0
  6
CONTINUOUS
 62
     7
 10
358.8853705079
 20
194.8377027531
 30
0.0
  0
VERTEX
  5
1DE
  8
0
  6
CONTINUOUS
 62
     7
 10
361.5736108977
 20
195.0407551566
 30
0.0
  0
VERTEX
  5
1DF
  8
0
  6
CONTINUOUS
 62
     7
 10
364.0166638761
 20
195.1990178265
 30
0.0
  0
VERTEX
  5
1E0
  8
0
  6
CONTINUOUS
 62
     7
 10
366.2102522189
 20
195.3248925191
 30
0.0
  0
VERTEX
  5
1E1
  8
0
  6
CONTINUOUS
 62
     7
 10
367.8812949885
 20
195.4132920729
 30
0.0
  0
VERTEX
  5
1E2
  8
0
  6
CONTINUOUS
 62
     7
 10
369.3693478662
 20
195.4882921216
 30
0.0
  0
VERTEX
  5
1E3
  8
0
  6
CONTINUOUS
 62
     7
 10
370.6920299762
 20
195.5532331466
 30
0.0
  0
VERTEX
  5
1E4
  8
0
  6
CONTINUOUS
 62
     7
 10
371.9716780461
 20
195.6161359487
 30
0.0
  0
VERTEX
  5
1E5
  8
0
  6
CONTINUOUS
 62
     7
 10
373.2337430672
 20
195.6800931265
 30
0.0
  0
VERTEX
  5
1E6
  8
0
  6
CONTINUOUS
 62
     7
 10
374.4801067493
 20
195.7468817413
 30
0.0
  0
VERTEX
  5
1E7
  8
0
  6
CONTINUOUS
 62
     7
 10
375.7124930172
 20
195.8181243766
 30
0.0
  0
VERTEX
  5
1E8
  8
0
  6
CONTINUOUS
 62
     7
 10
376.9324735584
 20
195.8952946087
 30
0.0
  0
VERTEX
  5
1E9
  8
0
  6
CONTINUOUS
 62
     7
 10
378.5422588425
 20
196.0096876362
 30
0.0
  0
VERTEX
  5
1EA
  8
0
  6
CONTINUOUS
 62
     7
 10
380.1517131701
 20
196.1408087704
 30
0.0
  0
VERTEX
  5
1EB
  8
0
  6
CONTINUOUS
 62
     7
 10
381.7804515963
 20
196.2450210306
 30
0.0
  0
VERTEX
  5
1EC
  8
0
  6
CONTINUOUS
 62
     7
 10
382.2660347721
 20
196.2494198253
 30
0.0
  0
VERTEX
  5
1ED
  8
0
  6
CONTINUOUS
 62
     7
 10
382.7571692011
 20
196.2328671677
 30
0.0
  0
VERTEX
  5
1EE
  8
0
  6
CONTINUOUS
 62
     7
 10
383.3488083015
 20
196.1767302313
 30
0.0
  0
VERTEX
  5
1EF
  8
0
  6
CONTINUOUS
 62
     7
 10
384.0559368103
 20
196.0421695211
 30
0.0
  0
VERTEX
  5
1F0
  8
0
  6
CONTINUOUS
 62
     7
 10
384.8649921837
 20
195.7839685116
 30
0.0
  0
VERTEX
  5
1F1
  8
0
  6
CONTINUOUS
 62
     7
 10
385.7659220753
 20
195.3682257906
 30
0.0
  0
VERTEX
  5
1F2
  8
0
  6
CONTINUOUS
 62
     7
 10
386.751480866
 20
194.7704655352
 30
0.0
  0
VERTEX
  5
1F3
  8
0
  6
CONTINUOUS
 62
     7
 10
387.8187510807
 20
193.9808324651
 30
0.0
  0
VERTEX
  5
1F4
  8
0
  6
CONTINUOUS
 62
     7
 10
388.9711609844
 20
193.0109073178
 30
0.0
  0
VERTEX
  5
1F5
  8
0
  6
CONTINUOUS
 62
     7
 10
389.7562027038
 20
192.3133079104
 30
0.0
  0
SEQEND
  5
363
  8
0
  6
CONTINUOUS
 62
     7
  0
LINE
  5
D4
  8
0
  6
CONTINUOUS
 62
     7
 10
389.7641858796
 20
192.3159828294
 30
0.0
 11
389.7641858796
 21
193.9215684691
 31
0.0
  0
POLYLINE
  5
D5
  8
0
  6
CONTINUOUS
 62
     7
 66
     1
 10
0.0
 20
0.0
 30
0.0
  0
VERTEX
  5
1F6
  8
0
  6
CONTINUOUS
 62
     7
 10
381.4261829021
 20
197.8931121744
 30
0.0
  0
VERTEX
  5
1F7
  8
0
  6
CONTINUOUS
 62
     7
 10
380.2218786242
 20
198.0600481829
 30
0.0
  0
VERTEX
  5
1F8
  8
0
  6
CONTINUOUS
 62
     7
 10
379.0082982732
 20
198.1718286973
 30
0.0
  0
VERTEX
  5
1F9
  8
0
  6
CONTINUOUS
 62
     7
 10
376.7031676883
 20
198.2693966742
 30
0.0
  0
VERTEX
  5
1FA
  8
0
  6
CONTINUOUS
 62
     7
 10
374.395237349
 20
198.2572066254
 30
0.0
  0
VERTEX
  5
1FB
  8
0
  6
CONTINUOUS
 62
     7
 10
369.7649801207
 20
198.1078087142
 30
0.0
  0
SEQEND
  5
362
  8
0
  6
CONTINUOUS
 62
     7
  0
POLYLINE
  5
D6
  8
0
  6
CONTINUOUS
 62
     7
 66
     1
 10
0.0
 20
0.0
 30
0.0
  0
VERTEX
  5
1FC
  8
0
  6
CONTINUOUS
 62
     7
 10
369.7649799965
 20
198.1078133262
 30
0.0
  0
VERTEX
  5
1FD
  8
0
  6
CONTINUOUS
 62
     7
 10
368.4020663299
 20
198.0869410762
 30
0.0
  0
VERTEX
  5
1FE
  8
0
  6
CONTINUOUS
 62
     7
 10
366.9294777034
 20
198.0809113064
 30
0.0
  0
VERTEX
  5
1FF
  8
0
  6
CONTINUOUS
 62
     7
 10
365.5306266836
 20
198.0856437143
 30
0.0
  0
VERTEX
  5
200
  8
0
  6
CONTINUOUS
 62
     7
 10
364.0511741482
 20
198.0958741668
 30
0.0
  0
VERTEX
  5
201
  8
0
  6
CONTINUOUS
 62
     7
 10
362.6226876287
 20
198.1059919007
 30
0.0
  0
VERTEX
  5
202
  8
0
  6
CONTINUOUS
 62
     7
 10
361.1104605288
 20
198.1114141146
 30
0.0
  0
VERTEX
  5
203
  8
0
  6
CONTINUOUS
 62
     7
 10
359.7656133854
 20
198.1077750942
 30
0.0
  0
SEQEND
  5
361
  8
0
  6
CONTINUOUS
 62
     7
  0
POLYLINE
  5
D7
  8
0
  6
CONTINUOUS
 62
     7
 66
     1
 10
0.0
 20
0.0
 30
0.0
  0
VERTEX
  5
204
  8
0
  6
CONTINUOUS
 62
     7
 10
359.7656133975
 20
198.1077765147
 30
0.0
  0
VERTEX
  5
205
  8
0
  6
CONTINUOUS
 62
     7
 10
357.3350142796
 20
198.1184641949
 30
0.0
  0
VERTEX
  5
206
  8
0
  6
CONTINUOUS
 62
     7
 10
349.7641941413
 20
198.107808915
 30
0.0
  0
SEQEND
  5
360
  8
0
  6
CONTINUOUS
 62
     7
  0
POLYLINE
  5
D8
  8
0
  6
CONTINUOUS
 62
     7
 66
     1
 10
0.0
 20
0.0
 30
0.0
  0
VERTEX
  5
207
  8
0
  6
CONTINUOUS
 62
     7
 10
349.7641934167
 20
198.1077922611
 30
0.0
  0
VERTEX
  5
208
  8
0
  6
CONTINUOUS
 62
     7
 10
348.2420359244
 20
198.1789156443
 30
0.0
  0
VERTEX
  5
209
  8
0
  6
CONTINUOUS
 62
     7
 10
346.5030742233
 20
198.2644035029
 30
0.0
  0
VERTEX
  5
20A
  8
0
  6
CONTINUOUS
 62
     7
 10
344.845461376
 20
198.3176549387
 30
0.0
  0
VERTEX
  5
20B
  8
0
  6
CONTINUOUS
 62
     7
 10
343.2532162603
 20
198.3133294546
 30
0.0
  0
VERTEX
  5
20C
  8
0
  6
CONTINUOUS
 62
     7
 10
341.6493882694
 20
198.2244260978
 30
0.0
  0
SEQEND
  5
35F
  8
0
  6
CONTINUOUS
 62
     7
  0
POLYLINE
  5
D9
  8
0
  6
CONTINUOUS
 62
     7
 66
     1
 10
0.0
 20
0.0
 30
0.0
  0
VERTEX
  5
20D
  8
0
  6
CONTINUOUS
 62
     7
 10
326.5776949619
 20
199.2687421107
 30
0.0
  0
VERTEX
  5
20E
  8
0
  6
CONTINUOUS
 62
     7
 10
329.3042682881
 20
199.2707445024
 30
0.0
  0
VERTEX
  5
20F
  8
0
  6
CONTINUOUS
 62
     7
 10
332.0113915705
 20
199.2733159705
 30
0.0
  0
VERTEX
  5
210
  8
0
  6
CONTINUOUS
 62
     7
 10
334.730289674
 20
199.2748891216
 30
0.0
  0
VERTEX
  5
211
  8
0
  6
CONTINUOUS
 62
     7
 10
337.4555565665
 20
199.2762263722
 30
0.0
  0
VERTEX
  5
212
  8
0
  6
CONTINUOUS
 62
     7
 10
340.1817250779
 20
199.2766633186
 30
0.0
  0
VERTEX
  5
213
  8
0
  6
CONTINUOUS
 62
     7
 10
344.7306493095
 20
199.2754908063
 30
0.0
  0
VERTEX
  5
214
  8
0
  6
CONTINUOUS
 62
     7
 10
349.281327443
 20
199.279762936
 30
0.0
  0
VERTEX
  5
215
  8
0
  6
CONTINUOUS
 62
     7
 10
353.8275720988
 20
199.2942051596
 30
0.0
  0
VERTEX
  5
216
  8
0
  6
CONTINUOUS
 62
     7
 10
358.3785310733
 20
199.2968038873
 30
0.0
  0
VERTEX
  5
217
  8
0
  6
CONTINUOUS
 62
     7
 10
362.9388463779
 20
199.26459958
 30
0.0
  0
VERTEX
  5
218
  8
0
  6
CONTINUOUS
 62
     7
 10
367.4717450065
 20
199.2568481431
 30
0.0
  0
VERTEX
  5
219
  8
0
  6
CONTINUOUS
 62
     7
 10
369.7184759187
 20
199.2956225046
 30
0.0
  0
VERTEX
  5
21A
  8
0
  6
CONTINUOUS
 62
     7
 10
371.9665963503
 20
199.3706668533
 30
0.0
  0
VERTEX
  5
21B
  8
0
  6
CONTINUOUS
 62
     7
 10
374.2419883304
 20
199.4433858052
 30
0.0
  0
VERTEX
  5
21C
  8
0
  6
CONTINUOUS
 62
     7
 10
376.5552709432
 20
199.4620239816
 30
0.0
  0
VERTEX
  5
21D
  8
0
  6
CONTINUOUS
 62
     7
 10
378.9163437451
 20
199.3735056165
 30
0.0
  0
VERTEX
  5
21E
  8
0
  6
CONTINUOUS
 62
     7
 10
381.3385307652
 20
199.1176754329
 30
0.0
  0
SEQEND
  5
35E
  8
0
  6
CONTINUOUS
 62
     7
  0
POLYLINE
  5
DA
  8
0
  6
CONTINUOUS
 62
     7
 66
     1
 10
0.0
 20
0.0
 30
0.0
  0
VERTEX
  5
21F
  8
0
  6
CONTINUOUS
 62
     7
 10
341.6493882694
 20
198.2244260978
 30
0.0
  0
VERTEX
  5
220
  8
0
  6
CONTINUOUS
 62
     7
 10
340.7608931608
 20
198.1580582964
 30
0.0
  0
VERTEX
  5
221
  8
0
  6
CONTINUOUS
 62
     7
 10
339.7982882607
 20
198.1077099641
 30
0.0
  0
SEQEND
  5
35D
  8
0
  6
CONTINUOUS
 62
     7
  0
LINE
  5
DB
  8
0
  6
CONTINUOUS
 62
     7
 10
349.7641937888
 20
198.107787209
 30
0.0
 11
341.6493882694
 21
198.1005403624
 31
0.0
  0
POLYLINE
  5
DC
  8
0
  6
CONTINUOUS
 62
     7
 66
     1
 10
0.0
 20
0.0
 30
0.0
  0
VERTEX
  5
222
  8
0
  6
CONTINUOUS
 62
     7
 10
369.7649801299
 20
198.1078083348
 30
0.0
  0
VERTEX
  5
223
  8
0
  6
CONTINUOUS
 62
     7
 10
364.7664258192
 20
198.0654096757
 30
0.0
  0
VERTEX
  5
224
  8
0
  6
CONTINUOUS
 62
     7
 10
359.7656133966
 20
198.1077765147
 30
0.0
  0
SEQEND
  5
35C
  8
0
  6
CONTINUOUS
 62
     7
  0
ARC
  5
DD
  8
0
  6
CONTINUOUS
 62
     7
 10
379.3870227953
 20
185.5331077514
 30
0.0
 40
12.52708829672234
 50
44.8210490886
 51
80.6317007377
  0
POLYLINE
  5
DE
  8
0
  6
CONTINUOUS
 62
     7
 66
     1
 10
0.0
 20
0.0
 30
0.0
  0
VERTEX
  5
225
  8
0
  6
CONTINUOUS
 62
     7
 10
389.7585797199
 20
192.3159828794
 30
0.0
  0
VERTEX
  5
226
  8
0
  6
CONTINUOUS
 62
     7
 10
389.7620472113
 20
192.3109399973
 30
0.0
  0
VERTEX
  5
227
  8
0
  6
CONTINUOUS
 62
     7
 10
389.7185423823
 20
192.3742369589
 30
0.0
  0
VERTEX
  5
228
  8
0
  6
CONTINUOUS
 62
     7
 10
389.6187367387
 20
192.5189254533
 30
0.0
  0
VERTEX
  5
229
  8
0
  6
CONTINUOUS
 62
     7
 10
389.4628380886
 20
192.7429027709
 30
0.0
  0
VERTEX
  5
22A
  8
0
  6
CONTINUOUS
 62
     7
 10
389.2496665434
 20
193.045260339
 30
0.0
  0
VERTEX
  5
22B
  8
0
  6
CONTINUOUS
 62
     7
 10
388.9802616043
 20
193.4200718173
 30
0.0
  0
VERTEX
  5
22C
  8
0
  6
CONTINUOUS
 62
     7
 10
388.6543459872
 20
193.8622151526
 30
0.0
  0
VERTEX
  5
22D
  8
0
  6
CONTINUOUS
 62
     7
 10
388.2726346325
 20
194.3633876719
 30
0.0
  0
SEQEND
  5
35B
  8
0
  6
CONTINUOUS
 62
     7
  0
POLYLINE
  5
DF
  8
0
  6
CONTINUOUS
 62
     7
 66
     1
 10
0.0
 20
0.0
 30
0.0
  0
VERTEX
  5
22E
  8
0
  6
CONTINUOUS
 62
     7
 10
326.5776922011
 20
199.2687048196
 30
0.0
  0
VERTEX
  5
22F
  8
0
  6
CONTINUOUS
 62
     7
 10
325.8307603243
 20
199.2564267372
 30
0.0
  0
VERTEX
  5
230
  8
0
  6
CONTINUOUS
 62
     7
 10
325.1144449407
 20
199.2193178158
 30
0.0
  0
VERTEX
  5
231
  8
0
  6
CONTINUOUS
 62
     7
 10
324.4182801674
 20
199.1545316215
 30
0.0
  0
VERTEX
  5
232
  8
0
  6
CONTINUOUS
 62
     7
 10
323.8184048279
 20
199.0713223859
 30
0.0
  0
VERTEX
  5
233
  8
0
  6
CONTINUOUS
 62
     7
 10
323.2532453903
 20
198.9638334701
 30
0.0
  0
VERTEX
  5
234
  8
0
  6
CONTINUOUS
 62
     7
 10
322.7438609113
 20
198.8363114486
 30
0.0
  0
VERTEX
  5
235
  8
0
  6
CONTINUOUS
 62
     7
 10
322.3014437588
 20
198.6930717677
 30
0.0
  0
VERTEX
  5
236
  8
0
  6
CONTINUOUS
 62
     7
 10
321.9348479794
 20
198.5388414996
 30
0.0
  0
SEQEND
  5
35A
  8
0
  6
CONTINUOUS
 62
     7
  0
LINE
  5
E0
  8
0
  6
CONTINUOUS
 62
     7
 10
321.9348479781
 20
198.5388414988
 30
0.0
 11
321.5395634386
 21
198.3442109702
 31
0.0
  0
ARC
  5
E1
  8
0
  6
CONTINUOUS
 62
     7
 10
360.3480411304
 20
173.0936339028
 30
0.0
 40
36.03739331033135
 50
35.3067253601
 51
39.1799479026
  0
ARC
  5
E2
  8
0
  6
CONTINUOUS
 62
     7
 10
379.7175539932
 20
186.6299832251
 30
0.0
 40
12.5924583461977
 50
47.1404418728
 51
82.6040209134
  0
LINE
  5
E3
  8
0
  6
CONTINUOUS
 62
     7
 10
341.6493882694
 20
198.2244260978
 30
0.0
 11
341.6493882694
 21
198.1854354492
 31
0.0
  0
ARC
  5
E4
  8
0
  6
CONTINUOUS
 62
     7
 10
356.737219991
 20
195.8603654508
 30
0.0
 40
2.0
 50
285.7570898053
 51
0.0
  0
ARC
  5
E5
  8
0
  6
CONTINUOUS
 62
     7
 10
313.8308122875
 20
347.9229847166
 30
0.0
 40
160.0000000000001
 50
270.6306446184
 51
285.7570898053
  0
LINE
  5
E6
  8
0
  6
CONTINUOUS
 62
     7
 10
358.737219991
 20
197.5540602978
 30
0.0
 11
316.0287226131
 21
197.5540602978
 31
0.0
  0
LINE
  5
E7
  8
0
  6
CONTINUOUS
 62
     7
 10
358.737219991
 20
195.8603654508
 30
0.0
 11
358.737219991
 21
197.5540602978
 31
0.0
  0
LINE
  5
E8
  8
0
  6
CONTINUOUS
 62
     7
 10
315.537219991
 20
198.1872623955
 30
0.0
 11
315.537219991
 21
198.3442109702
 31
0.0
  0
LINE
  5
E9
  8
0
  6
CONTINUOUS
 62
     7
 10
315.537219991
 20
198.3442109702
 30
0.0
 11
341.7724905403
 21
198.3442109702
 31
0.0
  0
LINE
  5
EA
  8
0
  6
CONTINUOUS
 62
     7
 10
347.2177943602
 20
198.3442109702
 30
0.0
 11
358.737219991
 21
198.3442109702
 31
0.0
  0
LINE
  5
EB
  8
0
  6
CONTINUOUS
 62
     7
 10
358.737219991
 20
198.3442109702
 30
0.0
 11
358.737219991
 21
197.5540602978
 31
0.0
  0
LINE
  5
EC
  8
0
  6
CONTINUOUS
 62
     7
 10
315.837219991
 20
174.3540602978
 30
0.0
 11
315.837219991
 21
182.1540602978
 31
0.0
  0
ARC
  5
ED
  8
0
  6
CONTINUOUS
 62
     7
 10
315.437219991
 20
182.1540602978
 30
0.0
 40
0.3999999999999773
 50
0.0
 51
90.0
  0
LINE
  5
EE
  8
0
  6
CONTINUOUS
 62
     7
 10
315.437219991
 20
182.5540602978
 30
0.0
 11
314.637219991
 21
182.5540602978
 31
0.0
  0
LINE
  5
EF
  8
0
  6
CONTINUOUS
 62
     7
 10
306.637219991
 20
182.5540602978
 30
0.0
 11
306.037219991
 21
182.5540602978
 31
0.0
  0
ARC
  5
F0
  8
0
  6
CONTINUOUS
 62
     7
 10
306.037219991
 20
182.1540602978
 30
0.0
 40
0.3999999999999773
 50
90.0
 51
180.0
  0
LINE
  5
F1
  8
0
  6
CONTINUOUS
 62
     7
 10
305.637219991
 20
182.1540602978
 30
0.0
 11
305.637219991
 21
181.5540602978
 31
0.0
  0
LINE
  5
F2
  8
0
  6
CONTINUOUS
 62
     7
 10
304.837219991
 20
179.3540602978
 30
0.0
 11
304.837219991
 21
174.3540602978
 31
0.0
  0
ARC
  5
F3
  8
0
  6
CONTINUOUS
 62
     7
 10
310.737219991
 20
193.9540602978
 30
0.0
 40
6.400000000000024
 50
334.4805415091
 51
151.3013359141
  0
ARC
  5
F4
  8
0
  6
CONTINUOUS
 62
     7
 10
325.537219991
 20
186.8886516047
 30
0.0
 40
10.00000000000006
 50
154.4805415091
 51
180.0
  0
LINE
  5
F5
  8
0
  6
CONTINUOUS
 62
     7
 10
315.537219991
 20
186.8886516047
 30
0.0
 11
315.537219991
 21
183.3540602978
 31
0.0
  0
LINE
  5
F6
  8
0
  6
CONTINUOUS
 62
     7
 10
315.637219991
 20
183.3540602978
 30
0.0
 11
315.537219991
 21
183.3540602978
 31
0.0
  0
ARC
  5
F7
  8
0
  6
CONTINUOUS
 62
     7
 10
315.637219991
 20
182.3540602978
 30
0.0
 40
1.0
 50
0.0
 51
90.0
  0
LINE
  5
F8
  8
0
  6
CONTINUOUS
 62
     7
 10
316.637219991
 20
174.3540602978
 30
0.0
 11
316.637219991
 21
182.3540602978
 31
0.0
  0
LINE
  5
F9
  8
0
  6
CONTINUOUS
 62
     7
 10
304.837219991
 20
179.3540602978
 30
0.0
 11
302.8893182901
 21
179.3540602978
 31
0.0
  0
ARC
  5
FA
  8
0
  6
CONTINUOUS
 62
     7
 10
326.4463109
 20
185.3540602978
 30
0.0
 40
24.30909090909091
 50
151.3013359141
 51
194.2894890274
  0
LINE
  5
FB
  8
0
  6
CONTINUOUS
 62
     7
 10
305.637219991
 20
173.5540602978
 30
0.0
 11
305.637219991
 21
172.3540602978
 31
0.0
  0
LINE
  5
FC
  8
0
  6
CONTINUOUS
 62
     7
 10
305.637219991
 20
172.3540602978
 30
0.0
 11
304.837219991
 21
172.3540602978
 31
0.0
  0
LINE
  5
FD
  8
0
  6
CONTINUOUS
 62
     7
 10
304.837219991
 20
172.3540602978
 30
0.0
 11
304.837219991
 21
174.3540602978
 31
0.0
  0
LINE
  5
FE
  8
0
  6
CONTINUOUS
 62
     7
 10
316.637219991
 20
174.3540602978
 30
0.0
 11
316.637219991
 21
172.3540602978
 31
0.0
  0
LINE
  5
FF
  8
0
  6
CONTINUOUS
 62
     7
 10
316.637219991
 20
172.3540602978
 30
0.0
 11
315.837219991
 21
172.3540602978
 31
0.0
  0
LINE
  5
100
  8
0
  6
CONTINUOUS
 62
     7
 10
315.837219991
 20
172.3540602978
 30
0.0
 11
315.837219991
 21
174.3540602978
 31
0.0
  0
LINE
  5
101
  8
0
  6
CONTINUOUS
 62
     7
 10
305.637219991
 20
173.5540602978
 30
0.0
 11
305.637219991
 21
181.5540602978
 31
0.0
  0
LINE
  5
102
  8
0
  6
CONTINUOUS
 62
     7
 10
306.637219991
 20
182.5540602978
 30
0.0
 11
314.637219991
 21
182.5540602978
 31
0.0
  0
ARC
  5
103
  8
0
  6
CONTINUOUS
 62
     7
 10
306.637219991
 20
181.5540602978
 30
0.0
 40
1.0
 50
90.0
 51
180.0
  0
ARC
  5
104
  8
0
  6
CONTINUOUS
 62
     7
 10
306.637219991
 20
173.5540602978
 30
0.0
 40
1.0
 50
180.0
 51
270.0
  0
LINE
  5
105
  8
0
  6
CONTINUOUS
 62
     7
 10
314.637219991
 20
172.5540602978
 30
0.0
 11
306.637219991
 21
172.5540602978
 31
0.0
  0
LINE
  5
106
  8
0
  6
CONTINUOUS
 62
     7
 10
315.637219991
 20
181.5540602978
 30
0.0
 11
315.637219991
 21
173.5540602978
 31
0.0
  0
ARC
  5
107
  8
0
  6
CONTINUOUS
 62
     7
 10
314.637219991
 20
181.5540602978
 30
0.0
 40
1.0
 50
0.0
 51
90.0
  0
ARC
  5
108
  8
0
  6
CONTINUOUS
 62
     7
 10
314.637219991
 20
173.5540602978
 30
0.0
 40
1.0
 50
270.0
 51
0.0
  0
LINE
  5
109
  8
0
  6
CONTINUOUS
 62
     7
 10
298.637219991
 20
107.3540602978
 30
0.0
 11
298.637219991
 21
108.5540602978
 31
0.0
  0
LINE
  5
10A
  8
0
  6
CONTINUOUS
 62
     7
 10
298.637219991
 20
108.5540602978
 30
0.0
 11
302.637219991
 21
108.5540602978
 31
0.0
  0
LINE
  5
10B
  8
0
  6
CONTINUOUS
 62
     7
 10
302.637219991
 20
107.3540602978
 30
0.0
 11
298.637219991
 21
107.3540602978
 31
0.0
  0
LINE
  5
10C
  8
0
  6
CONTINUOUS
 62
     7
 10
302.637219991
 20
108.5540602978
 30
0.0
 11
304.637219991
 21
108.5540602978
 31
0.0
  0
LINE
  5
10D
  8
0
  6
CONTINUOUS
 62
     7
 10
302.637219991
 20
107.3540602978
 30
0.0
 11
304.637219991
 21
107.3540602978
 31
0.0
  0
LINE
  5
10E
  8
0
  6
CONTINUOUS
 62
     7
 10
332.0056410436
 20
108.5540602978
 30
0.0
 11
304.637219991
 21
108.5540602978
 31
0.0
  0
LINE
  5
10F
  8
0
  6
CONTINUOUS
 62
     7
 10
304.637219991
 20
107.3540602978
 30
0.0
 11
332.0056410436
 21
107.3540602978
 31
0.0
  0
LINE
  5
110
  8
0
  6
CONTINUOUS
 62
     7
 10
334.637219991
 20
108.5540602978
 30
0.0
 11
334.637219991
 21
107.3540602978
 31
0.0
  0
LINE
  5
111
  8
0
  6
CONTINUOUS
 62
     7
 10
332.0056410436
 20
108.5540602978
 30
0.0
 11
334.637219991
 21
108.5540602978
 31
0.0
  0
LINE
  5
112
  8
0
  6
CONTINUOUS
 62
     7
 10
334.637219991
 20
107.3540602978
 30
0.0
 11
332.0056410436
 21
107.3540602978
 31
0.0
  0
LINE
  5
113
  8
0
  6
CONTINUOUS
 62
     7
 10
305.637219991
 20
108.5540602978
 30
0.0
 11
305.637219991
 21
172.3540602978
 31
0.0
  0
LINE
  5
114
  8
0
  6
CONTINUOUS
 62
     7
 10
315.637219991
 20
173.5540602978
 30
0.0
 11
315.637219991
 21
108.5540602978
 31
0.0
  0
POLYLINE
  5
115
  8
0
  6
CONTINUOUS
 62
     7
 66
     1
 10
0.0
 20
0.0
 30
0.0
  0
VERTEX
  5
237
  8
0
  6
CONTINUOUS
 62
     7
 10
194.855034192
 20
241.6424617836
 30
0.0
  0
VERTEX
  5
238
  8
0
  6
CONTINUOUS
 62
     7
 10
194.8158661653
 20
242.1022108148
 30
0.0
  0
VERTEX
  5
239
  8
0
  6
CONTINUOUS
 62
     7
 10
194.6128137619
 20
244.7904512045
 30
0.0
  0
VERTEX
  5
23A
  8
0
  6
CONTINUOUS
 62
     7
 10
194.4545510919
 20
247.2335041829
 30
0.0
  0
VERTEX
  5
23B
  8
0
  6
CONTINUOUS
 62
     7
 10
194.3286763993
 20
249.4270925258
 30
0.0
  0
VERTEX
  5
23C
  8
0
  6
CONTINUOUS
 62
     7
 10
194.2402768455
 20
251.0981352953
 30
0.0
  0
VERTEX
  5
23D
  8
0
  6
CONTINUOUS
 62
     7
 10
194.1652767969
 20
252.586188173
 30
0.0
  0
VERTEX
  5
23E
  8
0
  6
CONTINUOUS
 62
     7
 10
194.1003357718
 20
253.908870283
 30
0.0
  0
VERTEX
  5
23F
  8
0
  6
CONTINUOUS
 62
     7
 10
194.0374329697
 20
255.188518353
 30
0.0
  0
VERTEX
  5
240
  8
0
  6
CONTINUOUS
 62
     7
 10
193.9734757919
 20
256.450583374
 30
0.0
  0
VERTEX
  5
241
  8
0
  6
CONTINUOUS
 62
     7
 10
193.9066871772
 20
257.6969470561
 30
0.0
  0
VERTEX
  5
242
  8
0
  6
CONTINUOUS
 62
     7
 10
193.8354445419
 20
258.929333324
 30
0.0
  0
VERTEX
  5
243
  8
0
  6
CONTINUOUS
 62
     7
 10
193.7582743098
 20
260.1493138652
 30
0.0
  0
VERTEX
  5
244
  8
0
  6
CONTINUOUS
 62
     7
 10
193.6438812823
 20
261.7590991493
 30
0.0
  0
VERTEX
  5
245
  8
0
  6
CONTINUOUS
 62
     7
 10
193.5127601481
 20
263.3685534769
 30
0.0
  0
VERTEX
  5
246
  8
0
  6
CONTINUOUS
 62
     7
 10
193.4085478879
 20
264.9972919031
 30
0.0
  0
VERTEX
  5
247
  8
0
  6
CONTINUOUS
 62
     7
 10
193.4041490931
 20
265.4828750789
 30
0.0
  0
VERTEX
  5
248
  8
0
  6
CONTINUOUS
 62
     7
 10
193.4207017508
 20
265.9740095079
 30
0.0
  0
VERTEX
  5
249
  8
0
  6
CONTINUOUS
 62
     7
 10
193.4768386871
 20
266.5656486083
 30
0.0
  0
VERTEX
  5
24A
  8
0
  6
CONTINUOUS
 62
     7
 10
193.6113993974
 20
267.2727771172
 30
0.0
  0
VERTEX
  5
24B
  8
0
  6
CONTINUOUS
 62
     7
 10
193.8696004068
 20
268.0818324905
 30
0.0
  0
VERTEX
  5
24C
  8
0
  6
CONTINUOUS
 62
     7
 10
194.2853431279
 20
268.9827623821
 30
0.0
  0
VERTEX
  5
24D
  8
0
  6
CONTINUOUS
 62
     7
 10
194.8831033832
 20
269.9683211729
 30
0.0
  0
VERTEX
  5
24E
  8
0
  6
CONTINUOUS
 62
     7
 10
195.6727364533
 20
271.0355913875
 30
0.0
  0
VERTEX
  5
24F
  8
0
  6
CONTINUOUS
 62
     7
 10
196.6426616006
 20
272.1880012912
 30
0.0
  0
VERTEX
  5
250
  8
0
  6
CONTINUOUS
 62
     7
 10
197.3402833869
 20
272.9730681946
 30
0.0
  0
SEQEND
  5
359
  8
0
  6
CONTINUOUS
 62
     7
  0
LINE
  5
116
  8
0
  6
CONTINUOUS
 62
     7
 10
197.3376257928
 20
272.9810261864
 30
0.0
 11
195.7320004493
 21
272.9810261864
 31
0.0
  0
POLYLINE
  5
117
  8
0
  6
CONTINUOUS
 62
     7
 66
     1
 10
0.0
 20
0.0
 30
0.0
  0
VERTEX
  5
251
  8
0
  6
CONTINUOUS
 62
     7
 10
191.7604567441
 20
264.6430232089
 30
0.0
  0
VERTEX
  5
252
  8
0
  6
CONTINUOUS
 62
     7
 10
191.5935207355
 20
263.438718931
 30
0.0
  0
VERTEX
  5
253
  8
0
  6
CONTINUOUS
 62
     7
 10
191.4817402211
 20
262.22513858
 30
0.0
  0
VERTEX
  5
254
  8
0
  6
CONTINUOUS
 62
     7
 10
191.3841722443
 20
259.9200079951
 30
0.0
  0
VERTEX
  5
255
  8
0
  6
CONTINUOUS
 62
     7
 10
191.3963622931
 20
257.6120776558
 30
0.0
  0
VERTEX
  5
256
  8
0
  6
CONTINUOUS
 62
     7
 10
191.5457602043
 20
252.9818204275
 30
0.0
  0
SEQEND
  5
358
  8
0
  6
CONTINUOUS
 62
     7
  0
POLYLINE
  5
118
  8
0
  6
CONTINUOUS
 62
     7
 66
     1
 10
0.0
 20
0.0
 30
0.0
  0
VERTEX
  5
257
  8
0
  6
CONTINUOUS
 62
     7
 10
191.5457555923
 20
252.9818203033
 30
0.0
  0
VERTEX
  5
258
  8
0
  6
CONTINUOUS
 62
     7
 10
191.5666278422
 20
251.6189066367
 30
0.0
  0
VERTEX
  5
259
  8
0
  6
CONTINUOUS
 62
     7
 10
191.572657612
 20
250.1463180102
 30
0.0
  0
VERTEX
  5
25A
  8
0
  6
CONTINUOUS
 62
     7
 10
191.5679252041
 20
248.7474669905
 30
0.0
  0
VERTEX
  5
25B
  8
0
  6
CONTINUOUS
 62
     7
 10
191.5576947517
 20
247.268014455
 30
0.0
  0
VERTEX
  5
25C
  8
0
  6
CONTINUOUS
 62
     7
 10
191.5475770177
 20
245.8395279355
 30
0.0
  0
VERTEX
  5
25D
  8
0
  6
CONTINUOUS
 62
     7
 10
191.5421548039
 20
244.3273008356
 30
0.0
  0
VERTEX
  5
25E
  8
0
  6
CONTINUOUS
 62
     7
 10
191.5457938243
 20
242.9824536922
 30
0.0
  0
SEQEND
  5
357
  8
0
  6
CONTINUOUS
 62
     7
  0
POLYLINE
  5
119
  8
0
  6
CONTINUOUS
 62
     7
 66
     1
 10
0.0
 20
0.0
 30
0.0
  0
VERTEX
  5
25F
  8
0
  6
CONTINUOUS
 62
     7
 10
191.5457924038
 20
242.9824537043
 30
0.0
  0
VERTEX
  5
260
  8
0
  6
CONTINUOUS
 62
     7
 10
191.5351047235
 20
240.5518545864
 30
0.0
  0
VERTEX
  5
261
  8
0
  6
CONTINUOUS
 62
     7
 10
191.5457600035
 20
232.9810344481
 30
0.0
  0
SEQEND
  5
356
  8
0
  6
CONTINUOUS
 62
     7
  0
POLYLINE
  5
11A
  8
0
  6
CONTINUOUS
 62
     7
 66
     1
 10
0.0
 20
0.0
 30
0.0
  0
VERTEX
  5
262
  8
0
  6
CONTINUOUS
 62
     7
 10
191.5457766574
 20
232.9810337235
 30
0.0
  0
VERTEX
  5
263
  8
0
  6
CONTINUOUS
 62
     7
 10
191.4746532741
 20
231.4588762313
 30
0.0
  0
VERTEX
  5
264
  8
0
  6
CONTINUOUS
 62
     7
 10
191.3891654155
 20
229.7199145301
 30
0.0
  0
VERTEX
  5
265
  8
0
  6
CONTINUOUS
 62
     7
 10
191.3359139797
 20
228.0623016828
 30
0.0
  0
VERTEX
  5
266
  8
0
  6
CONTINUOUS
 62
     7
 10
191.3402394638
 20
226.4700565671
 30
0.0
  0
VERTEX
  5
267
  8
0
  6
CONTINUOUS
 62
     7
 10
191.4291428207
 20
224.8662285763
 30
0.0
  0
SEQEND
  5
355
  8
0
  6
CONTINUOUS
 62
     7
  0
POLYLINE
  5
11B
  8
0
  6
CONTINUOUS
 62
     7
 66
     1
 10
0.0
 20
0.0
 30
0.0
  0
VERTEX
  5
268
  8
0
  6
CONTINUOUS
 62
     7
 10
190.3848268077
 20
209.7945352687
 30
0.0
  0
VERTEX
  5
269
  8
0
  6
CONTINUOUS
 62
     7
 10
190.3828244161
 20
212.5211085949
 30
0.0
  0
VERTEX
  5
26A
  8
0
  6
CONTINUOUS
 62
     7
 10
190.3802529479
 20
215.2282318773
 30
0.0
  0
VERTEX
  5
26B
  8
0
  6
CONTINUOUS
 62
     7
 10
190.3786797969
 20
217.9471299808
 30
0.0
  0
VERTEX
  5
26C
  8
0
  6
CONTINUOUS
 62
     7
 10
190.3773425463
 20
220.6723968733
 30
0.0
  0
VERTEX
  5
26D
  8
0
  6
CONTINUOUS
 62
     7
 10
190.3769055999
 20
223.3985653847
 30
0.0
  0
VERTEX
  5
26E
  8
0
  6
CONTINUOUS
 62
     7
 10
190.3780781122
 20
227.9474896163
 30
0.0
  0
VERTEX
  5
26F
  8
0
  6
CONTINUOUS
 62
     7
 10
190.3738059825
 20
232.4981677498
 30
0.0
  0
VERTEX
  5
270
  8
0
  6
CONTINUOUS
 62
     7
 10
190.3593637588
 20
237.0444124056
 30
0.0
  0
VERTEX
  5
271
  8
0
  6
CONTINUOUS
 62
     7
 10
190.3567650312
 20
241.5953713801
 30
0.0
  0
VERTEX
  5
272
  8
0
  6
CONTINUOUS
 62
     7
 10
190.3889693385
 20
246.1556866847
 30
0.0
  0
VERTEX
  5
273
  8
0
  6
CONTINUOUS
 62
     7
 10
190.3967207754
 20
250.6885853133
 30
0.0
  0
VERTEX
  5
274
  8
0
  6
CONTINUOUS
 62
     7
 10
190.3579464138
 20
252.9353162256
 30
0.0
  0
VERTEX
  5
275
  8
0
  6
CONTINUOUS
 62
     7
 10
190.2829020652
 20
255.1834366571
 30
0.0
  0
VERTEX
  5
276
  8
0
  6
CONTINUOUS
 62
     7
 10
190.2101831132
 20
257.4588286372
 30
0.0
  0
VERTEX
  5
277
  8
0
  6
CONTINUOUS
 62
     7
 10
190.1915449369
 20
259.77211125
 30
0.0
  0
VERTEX
  5
278
  8
0
  6
CONTINUOUS
 62
     7
 10
190.280063302
 20
262.1331840519
 30
0.0
  0
VERTEX
  5
279
  8
0
  6
CONTINUOUS
 62
     7
 10
190.5358934856
 20
264.555371072
 30
0.0
  0
SEQEND
  5
354
  8
0
  6
CONTINUOUS
 62
     7
  0
POLYLINE
  5
11C
  8
0
  6
CONTINUOUS
 62
     7
 66
     1
 10
0.0
 20
0.0
 30
0.0
  0
VERTEX
  5
27A
  8
0
  6
CONTINUOUS
 62
     7
 10
191.4291428207
 20
224.8662285763
 30
0.0
  0
VERTEX
  5
27B
  8
0
  6
CONTINUOUS
 62
     7
 10
191.495510622
 20
223.9777334676
 30
0.0
  0
VERTEX
  5
27C
  8
0
  6
CONTINUOUS
 62
     7
 10
191.5458589544
 20
223.0151285675
 30
0.0
  0
SEQEND
  5
353
  8
0
  6
CONTINUOUS
 62
     7
  0
LINE
  5
11D
  8
0
  6
CONTINUOUS
 62
     7
 10
191.5457817095
 20
232.9810340956
 30
0.0
 11
191.5530285561
 21
224.8662285763
 31
0.0
  0
POLYLINE
  5
11E
  8
0
  6
CONTINUOUS
 62
     7
 66
     1
 10
0.0
 20
0.0
 30
0.0
  0
VERTEX
  5
27D
  8
0
  6
CONTINUOUS
 62
     7
 10
191.5457605836
 20
252.9818204367
 30
0.0
  0
VERTEX
  5
27E
  8
0
  6
CONTINUOUS
 62
     7
 10
191.5881592427
 20
247.983266126
 30
0.0
  0
VERTEX
  5
27F
  8
0
  6
CONTINUOUS
 62
     7
 10
191.5457924037
 20
242.9824537034
 30
0.0
  0
SEQEND
  5
352
  8
0
  6
CONTINUOUS
 62
     7
  0
ARC
  5
11F
  8
0
  6
CONTINUOUS
 62
     7
 10
204.120461167
 20
262.6038631021
 30
0.0
 40
12.52708829672208
 50
134.8210490886
 51
170.6317007377
  0
POLYLINE
  5
120
  8
0
  6
CONTINUOUS
 62
     7
 66
     1
 10
0.0
 20
0.0
 30
0.0
  0
VERTEX
  5
280
  8
0
  6
CONTINUOUS
 62
     7
 10
197.3376257426
 20
272.9754298156
 30
0.0
  0
VERTEX
  5
281
  8
0
  6
CONTINUOUS
 62
     7
 10
197.342678932
 20
272.9788977342
 30
0.0
  0
VERTEX
  5
282
  8
0
  6
CONTINUOUS
 62
     7
 10
197.2793319595
 20
272.9353826891
 30
0.0
  0
VERTEX
  5
283
  8
0
  6
CONTINUOUS
 62
     7
 10
197.1347455116
 20
272.8356148628
 30
0.0
  0
VERTEX
  5
284
  8
0
  6
CONTINUOUS
 62
     7
 10
196.9106661475
 20
272.6796783954
 30
0.0
  0
VERTEX
  5
285
  8
0
  6
CONTINUOUS
 62
     7
 10
196.6084532969
 20
272.4665647282
 30
0.0
  0
VERTEX
  5
286
  8
0
  6
CONTINUOUS
 62
     7
 10
196.2334971012
 20
272.1971019111
 30
0.0
  0
VERTEX
  5
287
  8
0
  6
CONTINUOUS
 62
     7
 10
195.7914773102
 20
271.8712502015
 30
0.0
  0
VERTEX
  5
288
  8
0
  6
CONTINUOUS
 62
     7
 10
195.2901812466
 20
271.4894749393
 30
0.0
  0
SEQEND
  5
351
  8
0
  6
CONTINUOUS
 62
     7
  0
POLYLINE
  5
121
  8
0
  6
CONTINUOUS
 62
     7
 66
     1
 10
0.0
 20
0.0
 30
0.0
  0
VERTEX
  5
289
  8
0
  6
CONTINUOUS
 62
     7
 10
190.3848640989
 20
209.794532508
 30
0.0
  0
VERTEX
  5
28A
  8
0
  6
CONTINUOUS
 62
     7
 10
190.3971421813
 20
209.0476006311
 30
0.0
  0
VERTEX
  5
28B
  8
0
  6
CONTINUOUS
 62
     7
 10
190.4342511027
 20
208.3312852475
 30
0.0
  0
VERTEX
  5
28C
  8
0
  6
CONTINUOUS
 62
     7
 10
190.499037297
 20
207.6351204742
 30
0.0
  0
VERTEX
  5
28D
  8
0
  6
CONTINUOUS
 62
     7
 10
190.5822465326
 20
207.0352451347
 30
0.0
  0
VERTEX
  5
28E
  8
0
  6
CONTINUOUS
 62
     7
 10
190.6897354484
 20
206.4700856971
 30
0.0
  0
VERTEX
  5
28F
  8
0
  6
CONTINUOUS
 62
     7
 10
190.8172574698
 20
205.9607012181
 30
0.0
  0
VERTEX
  5
290
  8
0
  6
CONTINUOUS
 62
     7
 10
190.9604971508
 20
205.5182840656
 30
0.0
  0
VERTEX
  5
291
  8
0
  6
CONTINUOUS
 62
     7
 10
191.1147274188
 20
205.1516882862
 30
0.0
  0
SEQEND
  5
350
  8
0
  6
CONTINUOUS
 62
     7
  0
LINE
  5
122
  8
0
  6
CONTINUOUS
 62
     7
 10
191.1147274197
 20
205.1516882849
 30
0.0
 11
191.3093579482
 21
204.7564037454
 31
0.0
  0
ARC
  5
123
  8
0
  6
CONTINUOUS
 62
     7
 10
216.5599350156
 20
243.5648814372
 30
0.0
 40
36.03739331039433
 50
125.3067253601
 51
129.1799479026
  0
ARC
  5
124
  8
0
  6
CONTINUOUS
 62
     7
 10
203.0235856934
 20
262.9343943
 30
0.0
 40
12.59245834619624
 50
137.1404418728
 51
172.6040209134
  0
LINE
  5
125
  8
0
  6
CONTINUOUS
 62
     7
 10
191.4291428207
 20
224.8662285763
 30
0.0
 11
191.4681334692
 21
224.8662285763
 31
0.0
  0
ARC
  5
126
  8
0
  6
CONTINUOUS
 62
     7
 10
193.7932034676
 20
239.9540602978
 30
0.0
 40
2.000000000000004
 50
15.7570898053
 51
90.0
  0
ARC
  5
127
  8
0
  6
CONTINUOUS
 62
     7
 10
41.7305842018
 20
197.0476525943
 30
0.0
 40
160.0000000000002
 50
359.6618680049
 51
15.7570898053
  0
LINE
  5
128
  8
0
  6
CONTINUOUS
 62
     7
 10
192.0995086207
 20
241.9540602978
 30
0.0
 11
192.0995086207
 21
199.2455629199
 31
0.0
  0
LINE
  5
129
  8
0
  6
CONTINUOUS
 62
     7
 10
193.7932034676
 20
241.9540602978
 30
0.0
 11
192.0995086207
 21
241.9540602978
 31
0.0
  0
LINE
  5
12A
  8
0
  6
CONTINUOUS
 62
     7
 10
191.466306523
 20
198.7540602978
 30
0.0
 11
191.3093579482
 21
198.7540602978
 31
0.0
  0
LINE
  5
12B
  8
0
  6
CONTINUOUS
 62
     7
 10
191.3093579482
 20
198.7540602978
 30
0.0
 11
191.3093579482
 21
224.9893308471
 31
0.0
  0
LINE
  5
12C
  8
0
  6
CONTINUOUS
 62
     7
 10
191.3093579482
 20
230.434634667
 30
0.0
 11
191.3093579482
 21
241.9540602978
 31
0.0
  0
LINE
  5
12D
  8
0
  6
CONTINUOUS
 62
     7
 10
191.3093579482
 20
241.9540602978
 30
0.0
 11
192.0995086207
 21
241.9540602978
 31
0.0
  0
LINE
  5
12E
  8
0
  6
CONTINUOUS
 62
     7
 10
201.5995086207
 20
174.3540602978
 30
0.0
 11
201.5995086207
 21
172.3540602978
 31
0.0
  0
LINE
  5
12F
  8
0
  6
CONTINUOUS
 62
     7
 10
200.7995086207
 20
174.3540602978
 30
0.0
 11
200.7995086207
 21
182.1540602978
 31
0.0
  0
ARC
  5
130
  8
0
  6
CONTINUOUS
 62
     7
 10
200.3995086207
 20
182.1540602978
 30
0.0
 40
0.4000000000000341
 50
0.0
 51
90.0
  0
LINE
  5
131
  8
0
  6
CONTINUOUS
 62
     7
 10
200.3995086207
 20
182.5540602978
 30
0.0
 11
199.5995086207
 21
182.5540602978
 31
0.0
  0
LINE
  5
132
  8
0
  6
CONTINUOUS
 62
     7
 10
191.5995086207
 20
182.5540602978
 30
0.0
 11
190.9995086207
 21
182.5540602978
 31
0.0
  0
ARC
  5
133
  8
0
  6
CONTINUOUS
 62
     7
 10
190.9995086207
 20
182.1540602978
 30
0.0
 40
0.4000000000000057
 50
90.0
 51
180.0
  0
LINE
  5
134
  8
0
  6
CONTINUOUS
 62
     7
 10
190.5995086207
 20
182.1540602978
 30
0.0
 11
190.5995086207
 21
181.5540602978
 31
0.0
  0
LINE
  5
135
  8
0
  6
CONTINUOUS
 62
     7
 10
189.7995086207
 20
179.3540602978
 30
0.0
 11
189.7995086207
 21
174.3540602978
 31
0.0
  0
ARC
  5
136
  8
0
  6
CONTINUOUS
 62
     7
 10
195.6995086207
 20
193.9540602978
 30
0.0
 40
6.399999999999999
 50
334.4805415091
 51
151.3013359141
  0
ARC
  5
137
  8
0
  6
CONTINUOUS
 62
     7
 10
210.4995086207
 20
186.8886516047
 30
0.0
 40
10.00000000000004
 50
154.4805415091
 51
180.0
  0
LINE
  5
138
  8
0
  6
CONTINUOUS
 62
     7
 10
200.4995086207
 20
186.8886516047
 30
0.0
 11
200.4995086207
 21
183.3540602978
 31
0.0
  0
LINE
  5
139
  8
0
  6
CONTINUOUS
 62
     7
 10
200.5995086207
 20
183.3540602978
 30
0.0
 11
200.4995086207
 21
183.3540602978
 31
0.0
  0
ARC
  5
13A
  8
0
  6
CONTINUOUS
 62
     7
 10
200.5995086207
 20
182.3540602978
 30
0.0
 40
1.0
 50
0.0
 51
90.0
  0
LINE
  5
13B
  8
0
  6
CONTINUOUS
 62
     7
 10
201.5995086207
 20
174.3540602978
 30
0.0
 11
201.5995086207
 21
182.3540602978
 31
0.0
  0
LINE
  5
13C
  8
0
  6
CONTINUOUS
 62
     7
 10
189.7995086207
 20
179.3540602978
 30
0.0
 11
187.8516069198
 21
179.3540602978
 31
0.0
  0
ARC
  5
13D
  8
0
  6
CONTINUOUS
 62
     7
 10
211.4085995298
 20
185.3540602978
 30
0.0
 40
24.30909090909089
 50
151.3013359141
 51
194.2894890274
  0
LINE
  5
13E
  8
0
  6
CONTINUOUS
 62
     7
 10
190.5995086207
 20
173.5540602978
 30
0.0
 11
190.5995086207
 21
172.3540602978
 31
0.0
  0
LINE
  5
13F
  8
0
  6
CONTINUOUS
 62
     7
 10
190.5995086207
 20
172.3540602978
 30
0.0
 11
189.7995086207
 21
172.3540602978
 31
0.0
  0
LINE
  5
140
  8
0
  6
CONTINUOUS
 62
     7
 10
189.7995086207
 20
172.3540602978
 30
0.0
 11
189.7995086207
 21
174.3540602978
 31
0.0
  0
LINE
  5
141
  8
0
  6
CONTINUOUS
 62
     7
 10
201.5995086207
 20
174.3540602978
 30
0.0
 11
201.5995086207
 21
172.3540602978
 31
0.0
  0
LINE
  5
142
  8
0
  6
CONTINUOUS
 62
     7
 10
201.5995086207
 20
172.3540602978
 30
0.0
 11
200.7995086207
 21
172.3540602978
 31
0.0
  0
LINE
  5
143
  8
0
  6
CONTINUOUS
 62
     7
 10
200.7995086207
 20
172.3540602978
 30
0.0
 11
200.7995086207
 21
174.3540602978
 31
0.0
  0
LINE
  5
144
  8
0
  6
CONTINUOUS
 62
     7
 10
190.5995086207
 20
173.5540602978
 30
0.0
 11
190.5995086207
 21
181.5540602978
 31
0.0
  0
LINE
  5
145
  8
0
  6
CONTINUOUS
 62
     7
 10
191.5995086207
 20
182.5540602978
 30
0.0
 11
199.5995086207
 21
182.5540602978
 31
0.0
  0
ARC
  5
146
  8
0
  6
CONTINUOUS
 62
     7
 10
191.5995086207
 20
181.5540602978
 30
0.0
 40
1.0
 50
90.0
 51
180.0
  0
ARC
  5
147
  8
0
  6
CONTINUOUS
 62
     7
 10
191.5995086207
 20
173.5540602978
 30
0.0
 40
1.0
 50
180.0
 51
270.0
  0
LINE
  5
148
  8
0
  6
CONTINUOUS
 62
     7
 10
199.5995086207
 20
172.5540602978
 30
0.0
 11
191.5995086207
 21
172.5540602978
 31
0.0
  0
LINE
  5
149
  8
0
  6
CONTINUOUS
 62
     7
 10
200.5995086207
 20
181.5540602978
 30
0.0
 11
200.5995086207
 21
173.5540602978
 31
0.0
  0
ARC
  5
14A
  8
0
  6
CONTINUOUS
 62
     7
 10
199.5995086207
 20
181.5540602978
 30
0.0
 40
1.0
 50
0.0
 51
90.0
  0
ARC
  5
14B
  8
0
  6
CONTINUOUS
 62
     7
 10
199.5995086207
 20
173.5540602978
 30
0.0
 40
1.0
 50
270.0
 51
0.0
  0
LINE
  5
14C
  8
0
  6
CONTINUOUS
 62
     7
 10
183.5995086207
 20
107.3540602978
 30
0.0
 11
183.5995086207
 21
108.5540602978
 31
0.0
  0
LINE
  5
14D
  8
0
  6
CONTINUOUS
 62
     7
 10
183.5995086207
 20
108.5540602978
 30
0.0
 11
187.5995086207
 21
108.5540602978
 31
0.0
  0
LINE
  5
14E
  8
0
  6
CONTINUOUS
 62
     7
 10
187.5995086207
 20
107.3540602978
 30
0.0
 11
183.5995086207
 21
107.3540602978
 31
0.0
  0
LINE
  5
14F
  8
0
  6
CONTINUOUS
 62
     7
 10
187.5995086207
 20
108.5540602978
 30
0.0
 11
189.5995086207
 21
108.5540602978
 31
0.0
  0
LINE
  5
150
  8
0
  6
CONTINUOUS
 62
     7
 10
187.5995086207
 20
107.3540602978
 30
0.0
 11
189.5995086207
 21
107.3540602978
 31
0.0
  0
LINE
  5
151
  8
0
  6
CONTINUOUS
 62
     7
 10
216.9679296733
 20
108.5540602978
 30
0.0
 11
189.5995086207
 21
108.5540602978
 31
0.0
  0
LINE
  5
152
  8
0
  6
CONTINUOUS
 62
     7
 10
189.5995086207
 20
107.3540602978
 30
0.0
 11
216.9679296733
 21
107.3540602978
 31
0.0
  0
LINE
  5
153
  8
0
  6
CONTINUOUS
 62
     7
 10
219.5995086207
 20
108.5540602978
 30
0.0
 11
219.5995086207
 21
107.3540602978
 31
0.0
  0
LINE
  5
154
  8
0
  6
CONTINUOUS
 62
     7
 10
216.9679296733
 20
108.5540602978
 30
0.0
 11
219.5995086207
 21
108.5540602978
 31
0.0
  0
LINE
  5
155
  8
0
  6
CONTINUOUS
 62
     7
 10
219.5995086207
 20
107.3540602978
 30
0.0
 11
216.9679296733
 21
107.3540602978
 31
0.0
  0
LINE
  5
156
  8
0
  6
CONTINUOUS
 62
     7
 10
190.5995086207
 20
108.5540602978
 30
0.0
 11
190.5995086207
 21
172.3540602978
 31
0.0
  0
LINE
  5
157
  8
0
  6
CONTINUOUS
 62
     7
 10
200.5995086207
 20
173.5540602978
 30
0.0
 11
200.5995086207
 21
108.5540602978
 31
0.0
  0
POLYLINE
  5
158
  8
0
  6
CONTINUOUS
 62
     7
 66
     1
 10
0.0
 20
0.0
 30
0.0
  0
VERTEX
  5
292
  8
0
  6
CONTINUOUS
 62
     7
 10
107.7564404499
 20
59.073034233
 30
0.0
  0
VERTEX
  5
293
  8
0
  6
CONTINUOUS
 62
     7
 10
106.7688351783
 20
58.9411625838
 30
0.0
  0
VERTEX
  5
294
  8
0
  6
CONTINUOUS
 62
     7
 10
105.5593213184
 20
58.785248385
 30
0.0
  0
VERTEX
  5
295
  8
0
  6
CONTINUOUS
 62
     7
 10
104.5752081935
 20
58.6623565602
 30
0.0
  0
VERTEX
  5
296
  8
0
  6
CONTINUOUS
 62
     7
 10
103.8167969447
 20
58.5700678973
 30
0.0
  0
VERTEX
  5
297
  8
0
  6
CONTINUOUS
 62
     7
 10
103.2111130434
 20
58.4987720763
 30
0.0
  0
VERTEX
  5
298
  8
0
  6
CONTINUOUS
 62
     7
 10
102.6149328476
 20
58.4326434344
 30
0.0
  0
VERTEX
  5
299
  8
0
  6
CONTINUOUS
 62
     7
 10
101.7314463398
 20
58.3422838908
 30
0.0
  0
VERTEX
  5
29A
  8
0
  6
CONTINUOUS
 62
     7
 10
100.8609706762
 20
58.2618822018
 30
0.0
  0
VERTEX
  5
29B
  8
0
  6
CONTINUOUS
 62
     7
 10
100.0036622093
 20
58.1899842544
 30
0.0
  0
VERTEX
  5
29C
  8
0
  6
CONTINUOUS
 62
     7
 10
99.1597746666
 20
58.1241805664
 30
0.0
  0
VERTEX
  5
29D
  8
0
  6
CONTINUOUS
 62
     7
 10
98.3244225557
 20
58.0599391021
 30
0.0
  0
VERTEX
  5
29E
  8
0
  6
CONTINUOUS
 62
     7
 10
97.4702743233
 20
57.9914457787
 30
0.0
  0
VERTEX
  5
29F
  8
0
  6
CONTINUOUS
 62
     7
 10
96.5930368477
 20
57.9222612612
 30
0.0
  0
VERTEX
  5
2A0
  8
0
  6
CONTINUOUS
 62
     7
 10
95.6924343242
 20
57.8556713376
 30
0.0
  0
VERTEX
  5
2A1
  8
0
  6
CONTINUOUS
 62
     7
 10
94.7682945684
 20
57.7922121254
 30
0.0
  0
VERTEX
  5
2A2
  8
0
  6
CONTINUOUS
 62
     7
 10
93.820605991
 20
57.7316505254
 30
0.0
  0
VERTEX
  5
2A3
  8
0
  6
CONTINUOUS
 62
     7
 10
92.9396356668
 20
57.67905199
 30
0.0
  0
VERTEX
  5
2A4
  8
0
  6
CONTINUOUS
 62
     7
 10
92.276091495
 20
57.6413848101
 30
0.0
  0
VERTEX
  5
2A5
  8
0
  6
CONTINUOUS
 62
     7
 10
91.7762734828
 20
57.6140596385
 30
0.0
  0
VERTEX
  5
2A6
  8
0
  6
CONTINUOUS
 62
     7
 10
91.1601149335
 20
57.5815208239
 30
0.0
  0
VERTEX
  5
2A7
  8
0
  6
CONTINUOUS
 62
     7
 10
90.3874970844
 20
57.5424137322
 30
0.0
  0
VERTEX
  5
2A8
  8
0
  6
CONTINUOUS
 62
     7
 10
89.4583673902
 20
57.497785008
 30
0.0
  0
VERTEX
  5
2A9
  8
0
  6
CONTINUOUS
 62
     7
 10
88.3726693132
 20
57.4488529572
 30
0.0
  0
VERTEX
  5
2AA
  8
0
  6
CONTINUOUS
 62
     7
 10
86.7140651114
 20
57.3805906826
 30
0.0
  0
VERTEX
  5
2AB
  8
0
  6
CONTINUOUS
 62
     7
 10
84.7948958184
 20
57.311060542
 30
0.0
  0
VERTEX
  5
2AC
  8
0
  6
CONTINUOUS
 62
     7
 10
82.7929571401
 20
57.2488237446
 30
0.0
  0
VERTEX
  5
2AD
  8
0
  6
CONTINUOUS
 62
     7
 10
77.3805059766
 20
57.1296022728
 30
0.0
  0
VERTEX
  5
2AE
  8
0
  6
CONTINUOUS
 62
     7
 10
71.8959832329
 20
57.0772349011
 30
0.0
  0
VERTEX
  5
2AF
  8
0
  6
CONTINUOUS
 62
     7
 10
68.3687752364
 20
57.078683652
 30
0.0
  0
VERTEX
  5
2B0
  8
0
  6
CONTINUOUS
 62
     7
 10
64.8130638038
 20
57.107961454
 30
0.0
  0
VERTEX
  5
2B1
  8
0
  6
CONTINUOUS
 62
     7
 10
61.3336936275
 20
57.1642582121
 30
0.0
  0
VERTEX
  5
2B2
  8
0
  6
CONTINUOUS
 62
     7
 10
58.1054899122
 20
57.2418893041
 30
0.0
  0
VERTEX
  5
2B3
  8
0
  6
CONTINUOUS
 62
     7
 10
56.5158848136
 20
57.2894564289
 30
0.0
  0
VERTEX
  5
2B4
  8
0
  6
CONTINUOUS
 62
     7
 10
54.9959774341
 20
57.3409447169
 30
0.0
  0
VERTEX
  5
2B5
  8
0
  6
CONTINUOUS
 62
     7
 10
53.5457736962
 20
57.3957553116
 30
0.0
  0
VERTEX
  5
2B6
  8
0
  6
CONTINUOUS
 62
     7
 10
52.1652760171
 20
57.4533112669
 30
0.0
  0
VERTEX
  5
2B7
  8
0
  6
CONTINUOUS
 62
     7
 10
50.8544830861
 20
57.5130508302
 30
0.0
  0
VERTEX
  5
2B8
  8
0
  6
CONTINUOUS
 62
     7
 10
49.6638836316
 20
57.5718255668
 30
0.0
  0
VERTEX
  5
2B9
  8
0
  6
CONTINUOUS
 62
     7
 10
48.8436024526
 20
57.6149380204
 30
0.0
  0
VERTEX
  5
2BA
  8
0
  6
CONTINUOUS
 62
     7
 10
48.2069434205
 20
57.6499398299
 30
0.0
  0
VERTEX
  5
2BB
  8
0
  6
CONTINUOUS
 62
     7
 10
47.9574521218
 20
57.6640419426
 30
0.0
  0
VERTEX
  5
2BC
  8
0
  6
CONTINUOUS
 62
     7
 10
47.7282752171
 20
57.6772415182
 30
0.0
  0
VERTEX
  5
2BD
  8
0
  6
CONTINUOUS
 62
     7
 10
47.4613666969
 20
57.6929167797
 30
0.0
  0
VERTEX
  5
2BE
  8
0
  6
CONTINUOUS
 62
     7
 10
47.1545120521
 20
57.71097363
 30
0.0
  0
VERTEX
  5
2BF
  8
0
  6
CONTINUOUS
 62
     7
 10
46.5805000475
 20
57.7441612021
 30
0.0
  0
VERTEX
  5
2C0
  8
0
  6
CONTINUOUS
 62
     7
 10
45.9042721996
 20
57.7836852164
 30
0.0
  0
VERTEX
  5
2C1
  8
0
  6
CONTINUOUS
 62
     7
 10
45.1351751925
 20
57.8309572442
 30
0.0
  0
VERTEX
  5
2C2
  8
0
  6
CONTINUOUS
 62
     7
 10
44.3254518282
 20
57.8846781866
 30
0.0
  0
VERTEX
  5
2C3
  8
0
  6
CONTINUOUS
 62
     7
 10
43.4832179139
 20
57.9450104004
 30
0.0
  0
VERTEX
  5
2C4
  8
0
  6
CONTINUOUS
 62
     7
 10
42.0075205581
 20
58.0615725583
 30
0.0
  0
VERTEX
  5
2C5
  8
0
  6
CONTINUOUS
 62
     7
 10
40.4422249154
 20
58.2002965155
 30
0.0
  0
VERTEX
  5
2C6
  8
0
  6
CONTINUOUS
 62
     7
 10
38.7796746854
 20
58.3644942279
 30
0.0
  0
VERTEX
  5
2C7
  8
0
  6
CONTINUOUS
 62
     7
 10
37.3989775951
 20
58.5136884304
 30
0.0
  0
VERTEX
  5
2C8
  8
0
  6
CONTINUOUS
 62
     7
 10
35.8807496407
 20
58.6900231725
 30
0.0
  0
VERTEX
  5
2C9
  8
0
  6
CONTINUOUS
 62
     7
 10
34.2252958785
 20
58.8957428089
 30
0.0
  0
VERTEX
  5
2CA
  8
0
  6
CONTINUOUS
 62
     7
 10
32.8797263128
 20
59.0736420136
 30
0.0
  0
SEQEND
  5
34F
  8
0
  6
CONTINUOUS
 62
     7
  0
LINE
  5
159
  8
0
  6
CONTINUOUS
 62
     7
 10
32.732086222
 20
58.012056309
 30
0.0
 11
32.7177244368
 21
57.9487549543
 31
0.0
  0
LINE
  5
15A
  8
0
  6
CONTINUOUS
 62
     7
 10
32.8658063506
 20
59.0765347678
 30
0.0
 11
32.8624815796
 21
59.049539235
 31
0.0
  0
POLYLINE
  5
15B
  8
0
  6
CONTINUOUS
 62
     7
 66
     1
 10
0.0
 20
0.0
 30
0.0
  0
VERTEX
  5
2CB
  8
0
  6
CONTINUOUS
 62
     7
 10
32.8301307611
 20
58.7868662289
 30
0.0
  0
VERTEX
  5
2CC
  8
0
  6
CONTINUOUS
 62
     7
 10
32.7946337517
 20
58.4986476745
 30
0.0
  0
VERTEX
  5
2CD
  8
0
  6
CONTINUOUS
 62
     7
 10
32.7179301849
 20
57.901928771
 30
0.0
  0
SEQEND
  5
34E
  8
0
  6
CONTINUOUS
 62
     7
  0
POLYLINE
  5
15C
  8
0
  6
CONTINUOUS
 62
     7
 66
     1
 10
0.0
 20
0.0
 30
0.0
  0
VERTEX
  5
2CE
  8
0
  6
CONTINUOUS
 62
     7
 10
107.9185777361
 20
57.9003201958
 30
0.0
  0
VERTEX
  5
2CF
  8
0
  6
CONTINUOUS
 62
     7
 10
107.8417648546
 20
58.4978523403
 30
0.0
  0
VERTEX
  5
2D0
  8
0
  6
CONTINUOUS
 62
     7
 10
107.8067828256
 20
58.7818757346
 30
0.0
  0
SEQEND
  5
34D
  8
0
  6
CONTINUOUS
 62
     7
  0
LINE
  5
15D
  8
0
  6
CONTINUOUS
 62
     7
 10
107.7726962107
 20
59.0586291526
 30
0.0
 11
107.7704909563
 21
59.0765338845
 31
0.0
  0
LINE
  5
15E
  8
0
  6
CONTINUOUS
 62
     7
 10
107.918572382
 20
57.94875276
 30
0.0
 11
107.9042192168
 21
58.0120160035
 31
0.0
  0
LINE
  5
15F
  8
0
  6
CONTINUOUS
 62
     7
 10
32.6181485624
 20
47.55820576
 30
0.0
 11
33.4181485624
 21
47.55820576
 31
0.0
  0
LINE
  5
160
  8
0
  6
CONTINUOUS
 62
     7
 10
32.6181485624
 20
47.4892813411
 30
0.0
 11
49.0181485624
 21
47.4892813411
 31
0.0
  0
LINE
  5
161
  8
0
  6
CONTINUOUS
 62
     7
 10
49.0181485624
 20
59.6892813411
 30
0.0
 11
32.6181485624
 21
59.6892813411
 31
0.0
  0
LINE
  5
162
  8
0
  6
CONTINUOUS
 62
     7
 10
107.2181485624
 20
47.55820576
 30
0.0
 11
108.0181485624
 21
47.55820576
 31
0.0
  0
LINE
  5
163
  8
0
  6
CONTINUOUS
 62
     7
 10
108.0181485624
 20
59.6892813411
 30
0.0
 11
91.6181485624
 21
59.6892813411
 31
0.0
  0
LINE
  5
164
  8
0
  6
CONTINUOUS
 62
     7
 10
91.6181485624
 20
47.4892813411
 30
0.0
 11
108.0181485624
 21
47.4892813411
 31
0.0
  0
LINE
  5
165
  8
0
  6
CONTINUOUS
 62
     7
 10
108.3181485624
 20
47.1892813411
 30
0.0
 11
111.7181485624
 21
47.1892813411
 31
0.0
  0
LINE
  5
166
  8
0
  6
CONTINUOUS
 62
     7
 10
108.3181485624
 20
59.5892813411
 30
0.0
 11
108.0181485624
 21
59.5892813411
 31
0.0
  0
LINE
  5
167
  8
0
  6
CONTINUOUS
 62
     7
 10
91.6181485624
 20
59.5892813411
 30
0.0
 11
90.9181485624
 21
59.5892813411
 31
0.0
  0
LINE
  5
168
  8
0
  6
CONTINUOUS
 62
     7
 10
90.9181485624
 20
47.5892813411
 30
0.0
 11
91.6181485624
 21
47.5892813411
 31
0.0
  0
LINE
  5
169
  8
0
  6
CONTINUOUS
 62
     7
 10
108.0181485624
 20
47.5892813411
 30
0.0
 11
108.3181485624
 21
47.5892813411
 31
0.0
  0
LINE
  5
16A
  8
0
  6
CONTINUOUS
 62
     7
 10
111.7181485624
 20
62.1892813411
 30
0.0
 11
108.3181485624
 21
62.1892813411
 31
0.0
  0
LINE
  5
16B
  8
0
  6
CONTINUOUS
 62
     7
 10
28.9181485624
 20
47.1892813411
 30
0.0
 11
32.3181485624
 21
47.1892813411
 31
0.0
  0
LINE
  5
16C
  8
0
  6
CONTINUOUS
 62
     7
 10
32.3181485624
 20
47.5892813411
 30
0.0
 11
32.6181485624
 21
47.5892813411
 31
0.0
  0
LINE
  5
16D
  8
0
  6
CONTINUOUS
 62
     7
 10
49.0181485624
 20
47.5892813411
 30
0.0
 11
49.7181485624
 21
47.5892813411
 31
0.0
  0
LINE
  5
16E
  8
0
  6
CONTINUOUS
 62
     7
 10
49.7181485624
 20
59.5892813411
 30
0.0
 11
49.0181485624
 21
59.5892813411
 31
0.0
  0
LINE
  5
16F
  8
0
  6
CONTINUOUS
 62
     7
 10
32.6181485624
 20
59.5892813411
 30
0.0
 11
32.3181485624
 21
59.5892813411
 31
0.0
  0
LINE
  5
170
  8
0
  6
CONTINUOUS
 62
     7
 10
32.3181485624
 20
62.1892813411
 30
0.0
 11
28.9181485624
 21
62.1892813411
 31
0.0
  0
POLYLINE
  5
171
  8
0
  6
CONTINUOUS
 62
     7
 66
     1
 10
0.0
 20
0.0
 30
0.0
  0
VERTEX
  5
2D1
  8
0
  6
CONTINUOUS
 62
     7
 10
32.7180773355
 20
57.5283332177
 30
0.0
  0
VERTEX
  5
2D2
  8
0
  6
CONTINUOUS
 62
     7
 10
32.7181115428
 20
57.6952692263
 30
0.0
  0
VERTEX
  5
2D3
  8
0
  6
CONTINUOUS
 62
     7
 10
32.7182438121
 20
57.8070497407
 30
0.0
  0
VERTEX
  5
2D4
  8
0
  6
CONTINUOUS
 62
     7
 10
32.7186889793
 20
57.904880306
 30
0.0
  0
VERTEX
  5
2D5
  8
0
  6
CONTINUOUS
 62
     7
 10
32.7188795969
 20
57.8988495454
 30
0.0
  0
SEQEND
  5
34C
  8
0
  6
CONTINUOUS
 62
     7
  0
POLYLINE
  5
172
  8
0
  6
CONTINUOUS
 62
     7
 66
     1
 10
0.0
 20
0.0
 30
0.0
  0
VERTEX
  5
2D6
  8
0
  6
CONTINUOUS
 62
     7
 10
38.8056478098
 20
53.9986087154
 30
0.0
  0
VERTEX
  5
2D7
  8
0
  6
CONTINUOUS
 62
     7
 10
37.7029330701
 20
54.2046896594
 30
0.0
  0
VERTEX
  5
2D8
  8
0
  6
CONTINUOUS
 62
     7
 10
36.634369147
 20
54.5460552388
 30
0.0
  0
VERTEX
  5
2D9
  8
0
  6
CONTINUOUS
 62
     7
 10
35.8268500142
 20
54.9044130136
 30
0.0
  0
VERTEX
  5
2DA
  8
0
  6
CONTINUOUS
 62
     7
 10
35.0891370834
 20
55.3151589943
 30
0.0
  0
VERTEX
  5
2DB
  8
0
  6
CONTINUOUS
 62
     7
 10
34.3311962461
 20
55.8301828279
 30
0.0
  0
VERTEX
  5
2DC
  8
0
  6
CONTINUOUS
 62
     7
 10
33.6930850178
 20
56.3492006562
 30
0.0
  0
VERTEX
  5
2DD
  8
0
  6
CONTINUOUS
 62
     7
 10
33.1620884553
 20
56.859848207
 30
0.0
  0
VERTEX
  5
2DE
  8
0
  6
CONTINUOUS
 62
     7
 10
32.9625600069
 20
57.082525087
 30
0.0
  0
VERTEX
  5
2DF
  8
0
  6
CONTINUOUS
 62
     7
 10
32.8198078762
 20
57.2719227523
 30
0.0
  0
VERTEX
  5
2E0
  8
0
  6
CONTINUOUS
 62
     7
 10
32.7180508632
 20
57.5283354974
 30
0.0
  0
SEQEND
  5
34B
  8
0
  6
CONTINUOUS
 62
     7
  0
POLYLINE
  5
173
  8
0
  6
CONTINUOUS
 62
     7
 66
     1
 10
0.0
 20
0.0
 30
0.0
  0
VERTEX
  5
2E1
  8
0
  6
CONTINUOUS
 62
     7
 10
101.830649315
 20
53.9986087152
 30
0.0
  0
VERTEX
  5
2E2
  8
0
  6
CONTINUOUS
 62
     7
 10
94.7874151492
 20
53.2125875955
 30
0.0
  0
VERTEX
  5
2E3
  8
0
  6
CONTINUOUS
 62
     7
 10
87.7167700537
 20
52.5950444765
 30
0.0
  0
VERTEX
  5
2E4
  8
0
  6
CONTINUOUS
 62
     7
 10
80.5960360291
 20
52.1727238579
 30
0.0
  0
VERTEX
  5
2E5
  8
0
  6
CONTINUOUS
 62
     7
 10
73.4515687158
 20
51.964450563
 30
0.0
  0
VERTEX
  5
2E6
  8
0
  6
CONTINUOUS
 62
     7
 10
69.1264100664
 20
51.9461110298
 30
0.0
  0
VERTEX
  5
2E7
  8
0
  6
CONTINUOUS
 62
     7
 10
64.796240142
 20
52.0095869208
 30
0.0
  0
VERTEX
  5
2E8
  8
0
  6
CONTINUOUS
 62
     7
 10
60.468936169
 20
52.1540444502
 30
0.0
  0
VERTEX
  5
2E9
  8
0
  6
CONTINUOUS
 62
     7
 10
56.1296562795
 20
52.378884321
 30
0.0
  0
VERTEX
  5
2EA
  8
0
  6
CONTINUOUS
 62
     7
 10
51.7973950202
 20
52.6803366649
 30
0.0
  0
VERTEX
  5
2EB
  8
0
  6
CONTINUOUS
 62
     7
 10
47.4578387407
 20
53.0556079761
 30
0.0
  0
VERTEX
  5
2EC
  8
0
  6
CONTINUOUS
 62
     7
 10
43.1283541636
 20
53.4973126516
 30
0.0
  0
VERTEX
  5
2ED
  8
0
  6
CONTINUOUS
 62
     7
 10
38.8056478098
 20
53.9986087152
 30
0.0
  0
SEQEND
  5
34A
  8
0
  6
CONTINUOUS
 62
     7
  0
POLYLINE
  5
174
  8
0
  6
CONTINUOUS
 62
     7
 66
     1
 10
0.0
 20
0.0
 30
0.0
  0
VERTEX
  5
2EE
  8
0
  6
CONTINUOUS
 62
     7
 10
107.9182462046
 20
57.5281747904
 30
0.0
  0
VERTEX
  5
2EF
  8
0
  6
CONTINUOUS
 62
     7
 10
107.8323891182
 20
57.2969061687
 30
0.0
  0
VERTEX
  5
2F0
  8
0
  6
CONTINUOUS
 62
     7
 10
107.5732679029
 20
56.9669922524
 30
0.0
  0
VERTEX
  5
2F1
  8
0
  6
CONTINUOUS
 62
     7
 10
107.1789656622
 20
56.565058952
 30
0.0
  0
VERTEX
  5
2F2
  8
0
  6
CONTINUOUS
 62
     7
 10
106.6422461556
 20
56.0935597544
 30
0.0
  0
VERTEX
  5
2F3
  8
0
  6
CONTINUOUS
 62
     7
 10
105.91916095
 20
55.555355529
 30
0.0
  0
VERTEX
  5
2F4
  8
0
  6
CONTINUOUS
 62
     7
 10
105.0313285605
 20
55.0191994413
 30
0.0
  0
VERTEX
  5
2F5
  8
0
  6
CONTINUOUS
 62
     7
 10
104.166011681
 20
54.6115828213
 30
0.0
  0
VERTEX
  5
2F6
  8
0
  6
CONTINUOUS
 62
     7
 10
103.1807525084
 20
54.2709301367
 30
0.0
  0
VERTEX
  5
2F7
  8
0
  6
CONTINUOUS
 62
     7
 10
102.5222644176
 20
54.1110409557
 30
0.0
  0
VERTEX
  5
2F8
  8
0
  6
CONTINUOUS
 62
     7
 10
101.8306493149
 20
53.9986087154
 30
0.0
  0
SEQEND
  5
349
  8
0
  6
CONTINUOUS
 62
     7
  0
POLYLINE
  5
175
  8
0
  6
CONTINUOUS
 62
     7
 66
     1
 10
0.0
 20
0.0
 30
0.0
  0
VERTEX
  5
2F9
  8
0
  6
CONTINUOUS
 62
     7
 10
107.9173992007
 20
57.9046869345
 30
0.0
  0
VERTEX
  5
2FA
  8
0
  6
CONTINUOUS
 62
     7
 10
107.9174713672
 20
57.910401909
 30
0.0
  0
VERTEX
  5
2FB
  8
0
  6
CONTINUOUS
 62
     7
 10
107.917842107
 20
57.8738472134
 30
0.0
  0
VERTEX
  5
2FC
  8
0
  6
CONTINUOUS
 62
     7
 10
107.9181224095
 20
57.7574574774
 30
0.0
  0
VERTEX
  5
2FD
  8
0
  6
CONTINUOUS
 62
     7
 10
107.9182197873
 20
57.5281725162
 30
0.0
  0
SEQEND
  5
348
  8
0
  6
CONTINUOUS
 62
     7
  0
POLYLINE
  5
176
  8
0
  6
CONTINUOUS
 62
     7
 66
     1
 10
0.0
 20
0.0
 30
0.0
  0
VERTEX
  5
2FE
  8
0
  6
CONTINUOUS
 62
     7
 10
35.1118016717
 20
58.9039631541
 30
0.0
  0
VERTEX
  5
2FF
  8
0
  6
CONTINUOUS
 62
     7
 10
34.3374140562
 20
58.9059655457
 30
0.0
  0
VERTEX
  5
300
  8
0
  6
CONTINUOUS
 62
     7
 10
34.1413263202
 20
58.9068445149
 30
0.0
  0
SEQEND
  5
347
  8
0
  6
CONTINUOUS
 62
     7
  0
POLYLINE
  5
177
  8
0
  6
CONTINUOUS
 62
     7
 66
     1
 10
0.0
 20
0.0
 30
0.0
  0
VERTEX
  5
301
  8
0
  6
CONTINUOUS
 62
     7
 10
32.8647339193
 20
59.0615893671
 30
0.0
  0
VERTEX
  5
302
  8
0
  6
CONTINUOUS
 62
     7
 10
32.8548531336
 20
59.0087266598
 30
0.0
  0
VERTEX
  5
303
  8
0
  6
CONTINUOUS
 62
     7
 10
32.8263454404
 20
58.7528964762
 30
0.0
  0
SEQEND
  5
346
  8
0
  6
CONTINUOUS
 62
     7
  0
ARC
  5
178
  8
0
  6
CONTINUOUS
 62
     7
 10
33.9343080655
 20
44.3410958375
 30
0.0
 40
14.61035545614371
 50
75.6823830869
 51
85.3773813695
  0
ARC
  5
179
  8
0
  6
CONTINUOUS
 62
     7
 10
106.5421234853
 20
45.1286776443
 30
0.0
 40
13.81278431131988
 50
94.2249341543
 51
104.9752267507
  0
POLYLINE
  5
17A
  8
0
  6
CONTINUOUS
 62
     7
 66
     1
 10
0.0
 20
0.0
 30
0.0
  0
VERTEX
  5
304
  8
0
  6
CONTINUOUS
 62
     7
 10
105.5245014141
 20
58.9039248284
 30
0.0
  0
VERTEX
  5
305
  8
0
  6
CONTINUOUS
 62
     7
 10
106.382275568
 20
58.9062951612
 30
0.0
  0
VERTEX
  5
306
  8
0
  6
CONTINUOUS
 62
     7
 10
106.5025046156
 20
58.9068308431
 30
0.0
  0
SEQEND
  5
345
  8
0
  6
CONTINUOUS
 62
     7
  0
POLYLINE
  5
17B
  8
0
  6
CONTINUOUS
 62
     7
 66
     1
 10
0.0
 20
0.0
 30
0.0
  0
VERTEX
  5
307
  8
0
  6
CONTINUOUS
 62
     7
 10
107.7303995829
 20
58.903346557
 30
0.0
  0
VERTEX
  5
308
  8
0
  6
CONTINUOUS
 62
     7
 10
107.739924197
 20
58.8916945937
 30
0.0
  0
VERTEX
  5
309
  8
0
  6
CONTINUOUS
 62
     7
 10
107.7524055606
 20
58.9158649023
 30
0.0
  0
VERTEX
  5
30A
  8
0
  6
CONTINUOUS
 62
     7
 10
107.7539222695
 20
58.9733395135
 30
0.0
  0
VERTEX
  5
30B
  8
0
  6
CONTINUOUS
 62
     7
 10
107.7553794761
 20
59.0442242434
 30
0.0
  0
SEQEND
  5
344
  8
0
  6
CONTINUOUS
 62
     7
  0
POLYLINE
  5
17C
  8
0
  6
CONTINUOUS
 62
     7
 66
     1
 10
0.0
 20
0.0
 30
0.0
  0
VERTEX
  5
30C
  8
0
  6
CONTINUOUS
 62
     7
 10
107.7571607036
 20
59.0676478191
 30
0.0
  0
VERTEX
  5
30D
  8
0
  6
CONTINUOUS
 62
     7
 10
107.7591862915
 20
59.0942847944
 30
0.0
  0
VERTEX
  5
30E
  8
0
  6
CONTINUOUS
 62
     7
 10
107.7679165506
 20
59.0878232673
 30
0.0
  0
VERTEX
  5
30F
  8
0
  6
CONTINUOUS
 62
     7
 10
107.7842084752
 20
58.9883123588
 30
0.0
  0
VERTEX
  5
310
  8
0
  6
CONTINUOUS
 62
     7
 10
107.8099518461
 20
58.7528958579
 30
0.0
  0
SEQEND
  5
343
  8
0
  6
CONTINUOUS
 62
     7
  0
POLYLINE
  5
17D
  8
0
  6
CONTINUOUS
 62
     7
 66
     1
 10
0.0
 20
0.0
 30
0.0
  0
VERTEX
  5
311
  8
0
  6
CONTINUOUS
 62
     7
 10
107.8099518456
 20
58.7528964835
 30
0.0
  0
VERTEX
  5
312
  8
0
  6
CONTINUOUS
 62
     7
 10
107.7385419481
 20
58.542640113
 30
0.0
  0
VERTEX
  5
313
  8
0
  6
CONTINUOUS
 62
     7
 10
107.4909540235
 20
58.2449708053
 30
0.0
  0
VERTEX
  5
314
  8
0
  6
CONTINUOUS
 62
     7
 10
107.0946435897
 20
57.8784449267
 30
0.0
  0
VERTEX
  5
315
  8
0
  6
CONTINUOUS
 62
     7
 10
106.5451342066
 20
57.4413546084
 30
0.0
  0
VERTEX
  5
316
  8
0
  6
CONTINUOUS
 62
     7
 10
105.8246444692
 20
56.9522832248
 30
0.0
  0
VERTEX
  5
317
  8
0
  6
CONTINUOUS
 62
     7
 10
104.9416372108
 20
56.4598978094
 30
0.0
  0
VERTEX
  5
318
  8
0
  6
CONTINUOUS
 62
     7
 10
104.0630037256
 20
56.0738901631
 30
0.0
  0
VERTEX
  5
319
  8
0
  6
CONTINUOUS
 62
     7
 10
103.0642294721
 20
55.7504739691
 30
0.0
  0
VERTEX
  5
31A
  8
0
  6
CONTINUOUS
 62
     7
 10
102.4084046008
 20
55.6010112134
 30
0.0
  0
VERTEX
  5
31B
  8
0
  6
CONTINUOUS
 62
     7
 10
101.7213117072
 20
55.4957714281
 30
0.0
  0
SEQEND
  5
342
  8
0
  6
CONTINUOUS
 62
     7
  0
POLYLINE
  5
17E
  8
0
  6
CONTINUOUS
 62
     7
 66
     1
 10
0.0
 20
0.0
 30
0.0
  0
VERTEX
  5
31C
  8
0
  6
CONTINUOUS
 62
     7
 10
101.7213120625
 20
55.4957683673
 30
0.0
  0
VERTEX
  5
31D
  8
0
  6
CONTINUOUS
 62
     7
 10
96.6567030681
 20
54.9459882386
 30
0.0
  0
VERTEX
  5
31E
  8
0
  6
CONTINUOUS
 62
     7
 10
91.6786008015
 20
54.4821343349
 30
0.0
  0
VERTEX
  5
31F
  8
0
  6
CONTINUOUS
 62
     7
 10
86.6862793931
 20
54.1029130642
 30
0.0
  0
VERTEX
  5
320
  8
0
  6
CONTINUOUS
 62
     7
 10
81.6398069411
 20
53.8152902071
 30
0.0
  0
VERTEX
  5
321
  8
0
  6
CONTINUOUS
 62
     7
 10
76.6204300721
 20
53.6304270586
 30
0.0
  0
VERTEX
  5
322
  8
0
  6
CONTINUOUS
 62
     7
 10
71.5780815009
 20
53.5501131533
 30
0.0
  0
VERTEX
  5
323
  8
0
  6
CONTINUOUS
 62
     7
 10
66.548496867
 20
53.5767653869
 30
0.0
  0
VERTEX
  5
324
  8
0
  6
CONTINUOUS
 62
     7
 10
61.9264417443
 20
53.6948013398
 30
0.0
  0
VERTEX
  5
325
  8
0
  6
CONTINUOUS
 62
     7
 10
57.3248727906
 20
53.8995061401
 30
0.0
  0
VERTEX
  5
326
  8
0
  6
CONTINUOUS
 62
     7
 10
52.7253026971
 20
54.1875219654
 30
0.0
  0
VERTEX
  5
327
  8
0
  6
CONTINUOUS
 62
     7
 10
48.1149465272
 20
54.5548702257
 30
0.0
  0
VERTEX
  5
328
  8
0
  6
CONTINUOUS
 62
     7
 10
43.5689161744
 20
54.9877895117
 30
0.0
  0
VERTEX
  5
329
  8
0
  6
CONTINUOUS
 62
     7
 10
38.9149850622
 20
55.4957683673
 30
0.0
  0
SEQEND
  5
341
  8
0
  6
CONTINUOUS
 62
     7
  0
POLYLINE
  5
17F
  8
0
  6
CONTINUOUS
 62
     7
 66
     1
 10
0.0
 20
0.0
 30
0.0
  0
VERTEX
  5
32A
  8
0
  6
CONTINUOUS
 62
     7
 10
38.9149850669
 20
55.4957683673
 30
0.0
  0
VERTEX
  5
32B
  8
0
  6
CONTINUOUS
 62
     7
 10
38.4833858951
 20
55.5558871851
 30
0.0
  0
VERTEX
  5
32C
  8
0
  6
CONTINUOUS
 62
     7
 10
38.0498941519
 20
55.6368550601
 30
0.0
  0
VERTEX
  5
32D
  8
0
  6
CONTINUOUS
 62
     7
 10
37.6170476197
 20
55.7386644913
 30
0.0
  0
VERTEX
  5
32E
  8
0
  6
CONTINUOUS
 62
     7
 10
37.2251939979
 20
55.8494980948
 30
0.0
  0
VERTEX
  5
32F
  8
0
  6
CONTINUOUS
 62
     7
 10
36.8297298224
 20
55.9795687697
 30
0.0
  0
VERTEX
  5
330
  8
0
  6
CONTINUOUS
 62
     7
 10
36.4333636429
 20
56.1288032448
 30
0.0
  0
VERTEX
  5
331
  8
0
  6
CONTINUOUS
 62
     7
 10
36.125993162
 20
56.2580533056
 30
0.0
  0
VERTEX
  5
332
  8
0
  6
CONTINUOUS
 62
     7
 10
35.8222657624
 20
56.3976426028
 30
0.0
  0
VERTEX
  5
333
  8
0
  6
CONTINUOUS
 62
     7
 10
35.5346833886
 20
56.5410401617
 30
0.0
  0
VERTEX
  5
334
  8
0
  6
CONTINUOUS
 62
     7
 10
35.2617644575
 20
56.687538213
 30
0.0
  0
VERTEX
  5
335
  8
0
  6
CONTINUOUS
 62
     7
 10
34.9956295144
 20
56.840488786
 30
0.0
  0
VERTEX
  5
336
  8
0
  6
CONTINUOUS
 62
     7
 10
34.7694642838
 20
56.978681381
 30
0.0
  0
VERTEX
  5
337
  8
0
  6
CONTINUOUS
 62
     7
 10
34.5064062656
 20
57.1491452743
 30
0.0
  0
VERTEX
  5
338
  8
0
  6
CONTINUOUS
 62
     7
 10
34.2106696358
 20
57.3541454961
 30
0.0
  0
VERTEX
  5
339
  8
0
  6
CONTINUOUS
 62
     7
 10
33.9993250713
 20
57.5100790278
 30
0.0
  0
VERTEX
  5
33A
  8
0
  6
CONTINUOUS
 62
     7
 10
33.7890512813
 20
57.6736757626
 30
0.0
  0
VERTEX
  5
33B
  8
0
  6
CONTINUOUS
 62
     7
 10
33.5778342189
 20
57.8473711506
 30
0.0
  0
VERTEX
  5
33C
  8
0
  6
CONTINUOUS
 62
     7
 10
33.401739524
 20
58.0009945301
 30
0.0
  0
VERTEX
  5
33D
  8
0
  6
CONTINUOUS
 62
     7
 10
33.2572561911
 20
58.1347388968
 30
0.0
  0
VERTEX
  5
33E
  8
0
  6
CONTINUOUS
 62
     7
 10
32.9276407295
 20
58.4979629397
 30
0.0
  0
VERTEX
  5
33F
  8
0
  6
CONTINUOUS
 62
     7
 10
32.8263452223
 20
58.7528958618
 30
0.0
  0
SEQEND
  5
340
  8
0
  6
CONTINUOUS
 62
     7
  0
LINE
  5
180
  8
0
  6
CONTINUOUS
 62
     7
 10
33.4181485624
 20
56.6136009132
 30
0.0
 11
33.4181485624
 21
55.4955864942
 31
0.0
  0
LINE
  5
181
  8
0
  6
CONTINUOUS
 62
     7
 10
32.6181485624
 20
55.4955864942
 30
0.0
 11
32.6181485624
 21
57.1892813411
 31
0.0
  0
LINE
  5
182
  8
0
  6
CONTINUOUS
 62
     7
 10
32.7026887005
 20
57.7230467661
 30
0.0
 11
32.6181485624
 21
57.1892813411
 31
0.0
  0
LINE
  5
183
  8
0
  6
CONTINUOUS
 62
     7
 10
32.6181485624
 20
53.5707432123
 30
0.0
 11
32.6181485624
 21
55.4955864942
 31
0.0
  0
LINE
  5
184
  8
0
  6
CONTINUOUS
 62
     7
 10
33.4181485624
 20
53.5707432123
 30
0.0
 11
33.4181485624
 21
55.4955864942
 31
0.0
  0
LINE
  5
185
  8
0
  6
CONTINUOUS
 62
     7
 10
32.6181485624
 20
47.55820576
 30
0.0
 11
32.6181485624
 21
53.5707432123
 31
0.0
  0
LINE
  5
186
  8
0
  6
CONTINUOUS
 62
     7
 10
33.4181485624
 20
47.55820576
 30
0.0
 11
33.4181485624
 21
53.5707432123
 31
0.0
  0
LINE
  5
187
  8
0
  6
CONTINUOUS
 62
     7
 10
49.0181485624
 20
57.627938349
 30
0.0
 11
49.0181485624
 21
59.6892813411
 31
0.0
  0
LINE
  5
188
  8
0
  6
CONTINUOUS
 62
     7
 10
49.0181485624
 20
47.4892813411
 30
0.0
 11
49.0181485624
 21
52.9172371406
 31
0.0
  0
LINE
  5
189
  8
0
  6
CONTINUOUS
 62
     7
 10
32.6181485624
 20
57.1892813411
 30
0.0
 11
32.6181485624
 21
59.6892813411
 31
0.0
  0
LINE
  5
18A
  8
0
  6
CONTINUOUS
 62
     7
 10
32.6181485624
 20
47.4892813411
 30
0.0
 11
32.6181485624
 21
47.55820576
 31
0.0
  0
LINE
  5
18B
  8
0
  6
CONTINUOUS
 62
     7
 10
107.929109442
 20
57.751452222
 30
0.0
 11
108.0181485624
 21
57.1892813411
 31
0.0
  0
LINE
  5
18C
  8
0
  6
CONTINUOUS
 62
     7
 10
108.0181485624
 20
57.1892813411
 30
0.0
 11
108.0181485624
 21
55.4955864942
 31
0.0
  0
LINE
  5
18D
  8
0
  6
CONTINUOUS
 62
     7
 10
107.2181485624
 20
55.4955864942
 30
0.0
 11
107.2181485624
 21
56.6050001716
 31
0.0
  0
LINE
  5
18E
  8
0
  6
CONTINUOUS
 62
     7
 10
108.0181485624
 20
55.4955864942
 30
0.0
 11
108.0181485624
 21
53.5707432123
 31
0.0
  0
LINE
  5
18F
  8
0
  6
CONTINUOUS
 62
     7
 10
107.2181485624
 20
55.4955864942
 30
0.0
 11
107.2181485624
 21
53.5707432123
 31
0.0
  0
LINE
  5
190
  8
0
  6
CONTINUOUS
 62
     7
 10
108.0181485624
 20
53.5707432123
 30
0.0
 11
108.0181485624
 21
47.55820576
 31
0.0
  0
LINE
  5
191
  8
0
  6
CONTINUOUS
 62
     7
 10
107.2181485624
 20
53.5707432123
 30
0.0
 11
107.2181485624
 21
47.55820576
 31
0.0
  0
LINE
  5
192
  8
0
  6
CONTINUOUS
 62
     7
 10
91.6181485624
 20
59.6892813411
 30
0.0
 11
91.6181485624
 21
57.6239033576
 31
0.0
  0
LINE
  5
193
  8
0
  6
CONTINUOUS
 62
     7
 10
91.6181485624
 20
52.9328637233
 30
0.0
 11
91.6181485624
 21
47.4892813411
 31
0.0
  0
LINE
  5
194
  8
0
  6
CONTINUOUS
 62
     7
 10
108.0181485624
 20
47.55820576
 30
0.0
 11
108.0181485624
 21
47.4892813411
 31
0.0
  0
LINE
  5
195
  8
0
  6
CONTINUOUS
 62
     7
 10
108.0181485624
 20
59.6892813411
 30
0.0
 11
108.0181485624
 21
57.1892813411
 31
0.0
  0
LINE
  5
196
  8
0
  6
CONTINUOUS
 62
     7
 10
111.7181485624
 20
59.2030884477
 30
0.0
 11
111.7181485624
 21
47.1892813411
 31
0.0
  0
LINE
  5
197
  8
0
  6
CONTINUOUS
 62
     7
 10
108.3181485624
 20
59.2030884477
 30
0.0
 11
108.3181485624
 21
47.1892813411
 31
0.0
  0
LINE
  5
198
  8
0
  6
CONTINUOUS
 62
     7
 10
90.9181485624
 20
59.5892813411
 30
0.0
 11
90.9181485624
 21
57.5779228109
 31
0.0
  0
LINE
  5
199
  8
0
  6
CONTINUOUS
 62
     7
 10
90.9181485624
 20
52.8731449456
 30
0.0
 11
90.9181485624
 21
47.5892813411
 31
0.0
  0
LINE
  5
19A
  8
0
  6
CONTINUOUS
 62
     7
 10
111.7181485624
 20
62.1892813411
 30
0.0
 11
111.7181485624
 21
59.2030884477
 31
0.0
  0
LINE
  5
19B
  8
0
  6
CONTINUOUS
 62
     7
 10
108.3181485624
 20
62.1892813411
 30
0.0
 11
108.3181485624
 21
59.2030884477
 31
0.0
  0
LINE
  5
19C
  8
0
  6
CONTINUOUS
 62
     7
 10
32.3181485624
 20
59.2030884477
 30
0.0
 11
32.3181485624
 21
47.1892813411
 31
0.0
  0
LINE
  5
19D
  8
0
  6
CONTINUOUS
 62
     7
 10
28.9181485624
 20
59.2030884477
 30
0.0
 11
28.9181485624
 21
47.1892813411
 31
0.0
  0
LINE
  5
19E
  8
0
  6
CONTINUOUS
 62
     7
 10
49.7181485624
 20
59.5892813411
 30
0.0
 11
49.7181485624
 21
57.5777847136
 31
0.0
  0
LINE
  5
19F
  8
0
  6
CONTINUOUS
 62
     7
 10
49.7181485624
 20
52.8586982352
 30
0.0
 11
49.7181485624
 21
47.5892813411
 31
0.0
  0
LINE
  5
1A0
  8
0
  6
CONTINUOUS
 62
     7
 10
32.3181485624
 20
62.1892813411
 30
0.0
 11
32.3181485624
 21
59.2030884477
 31
0.0
  0
LINE
  5
1A1
  8
0
  6
CONTINUOUS
 62
     7
 10
28.9181485624
 20
62.1892813411
 30
0.0
 11
28.9181485624
 21
59.2030884477
 31
0.0
  0
LINE
  5
1A2
  8
0
  6
CONTINUOUS
 62
     7
 10
113.9181485624
 20
58.2892813411
 30
0.0
 11
113.9181485624
 21
57.6892813411
 31
0.0
  0
ARC
  5
1A3
  8
0
  6
CONTINUOUS
 62
     7
 10
113.5181485624
 20
58.2892813411
 30
0.0
 40
0.4000000000000057
 50
0.0
 51
90.0
  0
LINE
  5
1A4
  8
0
  6
CONTINUOUS
 62
     7
 10
27.1181485624
 20
58.6892813411
 30
0.0
 11
28.9181485624
 21
58.6892813411
 31
0.0
  0
LINE
  5
1A5
  8
0
  6
CONTINUOUS
 62
     7
 10
49.7181485624
 20
58.6892813411
 30
0.0
 11
90.9181485624
 21
58.6892813411
 31
0.0
  0
LINE
  5
1A6
  8
0
  6
CONTINUOUS
 62
     7
 10
111.7181485624
 20
58.6892813411
 30
0.0
 11
113.5181485624
 21
58.6892813411
 31
0.0
  0
LINE
  5
1A7
  8
0
  6
CONTINUOUS
 62
     7
 10
26.7181485624
 20
57.6892813411
 30
0.0
 11
26.7181485624
 21
58.2892813411
 31
0.0
  0
ARC
  5
1A8
  8
0
  6
CONTINUOUS
 62
     7
 10
27.1181485624
 20
58.2892813411
 30
0.0
 40
0.3999999999999986
 50
90.0
 51
180.0
  0
LINE
  5
1A9
  8
0
  6
CONTINUOUS
 62
     7
 10
113.9181485624
 20
57.6892813411
 30
0.0
 11
113.9181485624
 21
49.6892813411
 31
0.0
  0
LINE
  5
1AA
  8
0
  6
CONTINUOUS
 62
     7
 10
26.7181485624
 20
49.6892813411
 30
0.0
 11
26.7181485624
 21
57.6892813411
 31
0.0
  0
LINE
  5
1AB
  8
0
  6
CONTINUOUS
 62
     7
 10
113.9181485624
 20
49.6892813411
 30
0.0
 11
113.9181485624
 21
49.0892813411
 31
0.0
  0
ARC
  5
1AC
  8
0
  6
CONTINUOUS
 62
     7
 10
113.5181485624
 20
49.0892813411
 30
0.0
 40
0.4000000000000057
 50
270.0
 51
0.0
  0
LINE
  5
1AD
  8
0
  6
CONTINUOUS
 62
     7
 10
26.7181485624
 20
49.0892813411
 30
0.0
 11
26.7181485624
 21
49.6892813411
 31
0.0
  0
ARC
  5
1AE
  8
0
  6
CONTINUOUS
 62
     7
 10
27.1181485624
 20
49.0892813411
 30
0.0
 40
0.4000000000000057
 50
180.0
 51
270.0
  0
LINE
  5
1AF
  8
0
  6
CONTINUOUS
 62
     7
 10
113.5181485624
 20
48.6892813411
 30
0.0
 11
111.7181485624
 21
48.6892813411
 31
0.0
  0
LINE
  5
1B0
  8
0
  6
CONTINUOUS
 62
     7
 10
90.9181485624
 20
48.6892813411
 30
0.0
 11
49.7181485624
 21
48.6892813411
 31
0.0
  0
LINE
  5
1B1
  8
0
  6
CONTINUOUS
 62
     7
 10
28.9181485624
 20
48.6892813411
 30
0.0
 11
27.1181485624
 21
48.6892813411
 31
0.0
  0
CIRCLE
  5
1B2
  8
0
  6
CONTINUOUS
 62
     7
 10
70.3181485624
 20
33.6892813411
 30
0.0
 40
1.5
  0
CIRCLE
  5
1B3
  8
0
  6
CONTINUOUS
 62
     7
 10
78.3181485624
 20
61.6892813411
 30
0.0
 40
1.499999999999993
  0
CIRCLE
  5
1B4
  8
0
  6
CONTINUOUS
 62
     7
 10
62.3181485624
 20
61.6892813411
 30
0.0
 40
1.5
  0
ARC
  5
1B5
  8
0
  6
CONTINUOUS
 62
     7
 10
66.903864277
 20
33.6892813411
 30
0.0
 40
4.0
 50
200.0051900882
 51
270.0
  0
ARC
  5
1B6
  8
0
  6
CONTINUOUS
 62
     7
 10
138.3181485624
 20
59.6892813411
 30
0.0
 40
80.0
 50
187.9032077335
 51
200.0051900882
  0
LINE
  5
1B7
  8
0
  6
CONTINUOUS
 62
     7
 10
58.3243988065
 20
58.6892813411
 30
0.0
 11
58.3181485624
 21
59.6892813411
 31
0.0
  0
LINE
  5
1B8
  8
0
  6
CONTINUOUS
 62
     7
 10
58.3181485624
 20
61.6892813411
 30
0.0
 11
58.3181485624
 21
59.6892813411
 31
0.0
  0
ARC
  5
1B9
  8
0
  6
CONTINUOUS
 62
     7
 10
62.3181485624
 20
61.6892813411
 30
0.0
 40
4.000000000000007
 50
90.0
 51
180.0
  0
LINE
  5
1BA
  8
0
  6
CONTINUOUS
 62
     7
 10
78.3181485624
 20
65.6892813411
 30
0.0
 11
62.3181485624
 21
65.6892813411
 31
0.0
  0
ARC
  5
1BB
  8
0
  6
CONTINUOUS
 62
     7
 10
78.3181485624
 20
61.6892813411
 30
0.0
 40
4.000000000000014
 50
0.0
 51
90.0
  0
LINE
  5
1BC
  8
0
  6
CONTINUOUS
 62
     7
 10
82.3181485624
 20
59.6892813411
 30
0.0
 11
82.3181485624
 21
61.6892813411
 31
0.0
  0
LINE
  5
1BD
  8
0
  6
CONTINUOUS
 62
     7
 10
82.3181485624
 20
59.6892813411
 30
0.0
 11
82.3118983182
 21
58.6892813411
 31
0.0
  0
ARC
  5
1BE
  8
0
  6
CONTINUOUS
 62
     7
 10
2.3181485624
 20
59.6892813411
 30
0.0
 40
80.0
 50
339.9948099118
 51
352.0967922665
  0
ARC
  5
1BF
  8
0
  6
CONTINUOUS
 62
     7
 10
73.7324328478
 20
33.6892813411
 30
0.0
 40
4.0
 50
270.0
 51
339.9948099118
  0
LINE
  5
1C0
  8
0
  6
CONTINUOUS
 62
     7
 10
66.903864277
 20
29.6892813411
 30
0.0
 11
73.7324328478
 21
29.6892813411
 31
0.0
  0
ENDSEC
  0
EOF
