  0
SECTION
  2
HEADER
  9
$ACADVER
  1
AC1009
  9
$DWGCODEPAGE
  3
ansi_1252
  9
$INSBASE
 10
0.0
 20
0.0
 30
0.0
  9
$EXTMIN
 10
0.0
 20
0.0
 30
0.0
  9
$EXTMAX
 10
420.0
 20
297.0
 30
0.0
  9
$LIMMIN
 10
0.0
 20
0.0
  9
$LIMMAX
 10
420.0
 20
297.0
  9
$ORTHOMODE
 70
     0
  9
$REGENMODE
 70
     1
  9
$FILLMODE
 70
     1
  9
$QTEXTMODE
 70
     0
  9
$MIRRTEXT
 70
     1
  9
$DRAGMODE
 70
     2
  9
$LTSCALE
 40
1.0
  9
$OSMODE
 70
    37
  9
$ATTMODE
 70
     1
  9
$TEXTSIZE
 40
3.5
  9
$TRACEWID
 40
1.0
  9
$TEXTSTYLE
  7
STANDARD
  9
$CLAYER
  8
0
  9
$CELTYPE
  6
BYLAYER
  9
$CECOLOR
 62
   256
  9
$DIMSCALE
 40
1.0
  9
$DIMASZ
 40
4.0
  9
$DIMEXO
 40
0.0
  9
$DIMDLI
 40
3.75
  9
$DIMRND
 40
0.0
  9
$DIMDLE
 40
0.0
  9
$DIMEXE
 40
2.0
  9
$DIMTP
 40
0.0
  9
$DIMTM
 40
0.0
  9
$DIMTXT
 40
3.5
  9
$DIMCEN
 40
2.5
  9
$DIMTSZ
 40
0.0
  9
$DIMTOL
 70
     0
  9
$DIMLIM
 70
     0
  9
$DIMTIH
 70
     1
  9
$DIMTOH
 70
     1
  9
$DIMSE1
 70
     0
  9
$DIMSE2
 70
     0
  9
$DIMTAD
 70
     1
  9
$DIMZIN
 70
     0
  9
$DIMBLK
  1

  9
$DIMASO
 70
     1
  9
$DIMSHO
 70
     1
  9
$DIMPOST
  1

  9
$DIMAPOST
  1

  9
$DIMALT
 70
     0
  9
$DIMALTD
 70
     3
  9
$DIMALTF
 40
0.0393700787
  9
$DIMLFAC
 40
5.0
  9
$DIMTOFL
 70
     1
  9
$DIMTVP
 40
0.0
  9
$DIMTIX
 70
     0
  9
$DIMSOXD
 70
     0
  9
$DIMSAH
 70
     0
  9
$DIMBLK1
  1

  9
$DIMBLK2
  1

  9
$DIMSTYLE
  2
ISO-25
  9
$DIMCLRD
 70
     0
  9
$DIMCLRE
 70
     0
  9
$DIMCLRT
 70
     0
  9
$DIMTFAC
 40
1.0
  9
$DIMGAP
 40
1.524
  9
$LUNITS
 70
     2
  9
$LUPREC
 70
     2
  9
$SKETCHINC
 40
1.0
  9
$FILLETRAD
 40
10.0
  9
$AUNITS
 70
     0
  9
$AUPREC
 70
     2
  9
$MENU
  1
.
  9
$ELEVATION
 40
0.0
  9
$PELEVATION
 40
0.0
  9
$THICKNESS
 40
0.0
  9
$LIMCHECK
 70
     0
  9
$CHAMFERA
 40
10.0
  9
$CHAMFERB
 40
10.0
  9
$SKPOLY
 70
     0
  9
$TDCREATE
 40
2457802.513829016
  9
$TDUPDATE
 40
2457802.513829294
  9
$TDINDWG
 40
0.0000000116
  9
$TDUSRTIMER
 40
0.0000000116
  9
$USRTIMER
 70
     1
  9
$ANGBASE
 50
0.0
  9
$ANGDIR
 70
     0
  9
$PDMODE
 70
     0
  9
$PDSIZE
 40
-1.0
  9
$PLINEWID
 40
0.0
  9
$COORDS
 70
     1
  9
$SPLFRAME
 70
     0
  9
$SPLINETYPE
 70
     6
  9
$SPLINESEGS
 70
     8
  9
$ATTDIA
 70
     0
  9
$ATTREQ
 70
     1
  9
$HANDLING
 70
     1
  9
$HANDSEED
  5
8C8
  9
$SURFTAB1
 70
     6
  9
$SURFTAB2
 70
     6
  9
$SURFTYPE
 70
     6
  9
$SURFU
 70
     6
  9
$SURFV
 70
     6
  9
$UCSNAME
  2

  9
$UCSORG
 10
0.0
 20
0.0
 30
0.0
  9
$UCSXDIR
 10
1.0
 20
0.0
 30
0.0
  9
$UCSYDIR
 10
0.0
 20
1.0
 30
0.0
  9
$PUCSNAME
  2

  9
$PUCSORG
 10
0.0
 20
0.0
 30
0.0
  9
$PUCSXDIR
 10
1.0
 20
0.0
 30
0.0
  9
$PUCSYDIR
 10
0.0
 20
1.0
 30
0.0
  9
$USERI1
 70
     0
  9
$USERI2
 70
     0
  9
$USERI3
 70
     0
  9
$USERI4
 70
     0
  9
$USERI5
 70
     0
  9
$USERR1
 40
0.0
  9
$USERR2
 40
0.0
  9
$USERR3
 40
0.0
  9
$USERR4
 40
0.0
  9
$USERR5
 40
0.0
  9
$WORLDVIEW
 70
     1
  9
$SHADEDGE
 70
     3
  9
$SHADEDIF
 70
    70
  9
$TILEMODE
 70
     1
  9
$MAXACTVP
 70
    64
  9
$PLIMCHECK
 70
     0
  9
$PEXTMIN
 10
1.0000000000E+20
 20
1.0000000000E+20
 30
1.0000000000E+20
  9
$PEXTMAX
 10
-1.0000000000E+20
 20
-1.0000000000E+20
 30
-1.0000000000E+20
  9
$PLIMMIN
 10
0.0
 20
0.0
  9
$PLIMMAX
 10
420.0
 20
297.0
  9
$UNITMODE
 70
     0
  9
$VISRETAIN
 70
     1
  9
$PLINEGEN
 70
     0
  9
$PSLTSCALE
 70
     1
  0
ENDSEC
  0
SECTION
  2
TABLES
  0
TABLE
  2
VPORT
 70
     1
  0
VPORT
  2
*ACTIVE
 70
     0
 10
0.0
 20
0.0
 11
1.0
 21
1.0
 12
210.0
 22
148.5
 13
0.0
 23
0.0
 14
10.0
 24
10.0
 15
10.0
 25
10.0
 16
0.0
 26
0.0
 36
1.0
 17
0.0
 27
0.0
 37
0.0
 40
297.0
 41
1.4141414141
 42
50.0
 43
0.0
 44
0.0
 50
0.0
 51
0.0
 71
     0
 72
  2000
 73
     1
 74
     3
 75
     0
 76
     0
 77
     0
 78
     0
  0
ENDTAB
  0
TABLE
  2
LTYPE
 70
     6
  0
LTYPE
  2
CONTINUOUS
 70
     0
  3
Solid line
 72
    65
 73
     0
 40
0.0
  0
LTYPE
  2
HIDDEN
 70
     0
  3
Hidden __ __ __ __ __ __ __ __ __ __ __ __ __ __
 72
    65
 73
     2
 40
1.905
 49
1.27
 49
-0.635
  0
LTYPE
  2
PHANTOM
 70
     0
  3
Phantom ______  __  __  ______  __  __  ______
 72
    65
 73
     6
 40
12.7
 49
6.35
 49
-1.27
 49
1.27
 49
-1.27
 49
1.27
 49
-1.27
  0
LTYPE
  2
CENTER
 70
     0
  3
Center ____ _ ____ _ ____ _ ____ _ ____ _ ____
 72
    65
 73
     4
 40
10.16
 49
6.35
 49
-1.27
 49
1.27
 49
-1.27
  0
LTYPE
  2
CENTERX2
 70
     0
  3
Center (2x) ________  __  ________  __  _____
 72
    65
 73
     4
 40
20.32
 49
12.7
 49
-2.54
 49
2.54
 49
-2.54
  0
LTYPE
  2
DOT2
 70
     0
  3
Dot (.5x) ........................................
 72
    65
 73
     2
 40
0.635
 49
0.0
 49
-0.635
  0
ENDTAB
  0
TABLE
  2
LAYER
 70
     2
  0
LAYER
  2
0
 70
     0
 62
     7
  6
CONTINUOUS
  0
LAYER
  2
FORMAT
 70
     0
 62
     7
  6
CONTINUOUS
  0
ENDTAB
  0
TABLE
  2
STYLE
 70
     1
  0
STYLE
  2
STANDARD
 70
     0
 40
0.0
 41
1.0
 50
0.0
 71
     0
 42
3.5
  3
txt
  4

  0
ENDTAB
  0
TABLE
  2
VIEW
 70
     0
  0
ENDTAB
  0
TABLE
  2
UCS
 70
     0
  0
ENDTAB
  0
TABLE
  2
APPID
 70
     1
  0
APPID
  2
ACAD
 70
     0
  0
ENDTAB
  0
TABLE
  2
DIMSTYLE
 70
     1
  0
DIMSTYLE
  2
ISO-25
 70
     0
  3

  4

  5

  6

  7

 40
1.0
 41
2.5
 42
0.625
 43
3.75
 44
1.25
 45
0.0
 46
0.0
 47
0.0
 48
0.0
140
2.5
141
2.5
142
0.0
143
0.0393700787
144
1.0
145
0.0
146
1.0
147
0.625
 71
     0
 72
     0
 73
     0
 74
     0
 75
     0
 76
     0
 77
     1
 78
     8
170
     0
171
     3
172
     1
173
     0
174
     0
175
     0
176
     0
177
     0
178
     0
  0
ENDTAB
  0
ENDSEC
  0
SECTION
  2
BLOCKS
  0
BLOCK
  8
0
  2
$MODEL_SPACE
 70
     0
 10
0.0
 20
0.0
 30
0.0
  3
$MODEL_SPACE
  1

  0
ENDBLK
  5
21
  8
0
  0
BLOCK
 67
     1
  8
0
  2
$PAPER_SPACE
 70
     0
 10
0.0
 20
0.0
 30
0.0
  3
$PAPER_SPACE
  1

  0
ENDBLK
  5
1D
 67
     1
  8
0
  0
ENDSEC
  0
SECTION
  2
ENTITIES
  0
POLYLINE
  5
45
  8
0
  6
CONTINUOUS
 62
     7
 66
     1
 10
0.0
 20
0.0
 30
0.0
  0
VERTEX
  5
38A
  8
0
  6
CONTINUOUS
 62
     7
 10
306.4137714973
 20
255.0037752134
 30
0.0
  0
VERTEX
  5
38B
  8
0
  6
CONTINUOUS
 62
     7
 10
305.1389115921
 20
254.8335622293
 30
0.0
  0
VERTEX
  5
38C
  8
0
  6
CONTINUOUS
 62
     7
 10
304.0460663906
 20
254.6924959165
 30
0.0
  0
VERTEX
  5
38D
  8
0
  6
CONTINUOUS
 62
     7
 10
303.1355398766
 20
254.5783649427
 30
0.0
  0
VERTEX
  5
38E
  8
0
  6
CONTINUOUS
 62
     7
 10
302.4075645081
 20
254.4893334848
 30
0.0
  0
VERTEX
  5
38F
  8
0
  6
CONTINUOUS
 62
     7
 10
301.8091755978
 20
254.4176171762
 30
0.0
  0
VERTEX
  5
390
  8
0
  6
CONTINUOUS
 62
     7
 10
301.3881283871
 20
254.3680261117
 30
0.0
  0
VERTEX
  5
391
  8
0
  6
CONTINUOUS
 62
     7
 10
300.9519415966
 20
254.3177972776
 30
0.0
  0
VERTEX
  5
392
  8
0
  6
CONTINUOUS
 62
     7
 10
300.4825967422
 20
254.2649935228
 30
0.0
  0
VERTEX
  5
393
  8
0
  6
CONTINUOUS
 62
     7
 10
299.9800640217
 20
254.2098115427
 30
0.0
  0
VERTEX
  5
394
  8
0
  6
CONTINUOUS
 62
     7
 10
299.4443255535
 20
254.1524420721
 30
0.0
  0
VERTEX
  5
395
  8
0
  6
CONTINUOUS
 62
     7
 10
298.0500239006
 20
254.0098260385
 30
0.0
  0
VERTEX
  5
396
  8
0
  6
CONTINUOUS
 62
     7
 10
296.4708584419
 20
253.8593302709
 30
0.0
  0
VERTEX
  5
397
  8
0
  6
CONTINUOUS
 62
     7
 10
295.1512950531
 20
253.7422071439
 30
0.0
  0
VERTEX
  5
398
  8
0
  6
CONTINUOUS
 62
     7
 10
293.8245850674
 20
253.6330293161
 30
0.0
  0
VERTEX
  5
399
  8
0
  6
CONTINUOUS
 62
     7
 10
292.5910252205
 20
253.5403619749
 30
0.0
  0
VERTEX
  5
39A
  8
0
  6
CONTINUOUS
 62
     7
 10
291.450776445
 20
253.4630845529
 30
0.0
  0
VERTEX
  5
39B
  8
0
  6
CONTINUOUS
 62
     7
 10
290.4039996735
 20
253.4002552969
 30
0.0
  0
VERTEX
  5
39C
  8
0
  6
CONTINUOUS
 62
     7
 10
289.4508439175
 20
253.3511351091
 30
0.0
  0
VERTEX
  5
39D
  8
0
  6
CONTINUOUS
 62
     7
 10
288.5914462677
 20
253.3151875478
 30
0.0
  0
VERTEX
  5
39E
  8
0
  6
CONTINUOUS
 62
     7
 10
287.82524048
 20
253.291923855
 30
0.0
  0
VERTEX
  5
39F
  8
0
  6
CONTINUOUS
 62
     7
 10
287.4646264187
 20
253.2824765188
 30
0.0
  0
VERTEX
  5
3A0
  8
0
  6
CONTINUOUS
 62
     7
 10
287.1109562984
 20
253.2717238409
 30
0.0
  0
VERTEX
  5
3A1
  8
0
  6
CONTINUOUS
 62
     7
 10
286.7642181984
 20
253.2592664701
 30
0.0
  0
VERTEX
  5
3A2
  8
0
  6
CONTINUOUS
 62
     7
 10
286.4244061581
 20
253.2457183343
 30
0.0
  0
VERTEX
  5
3A3
  8
0
  6
CONTINUOUS
 62
     7
 10
285.8687418571
 20
253.2226811391
 30
0.0
  0
VERTEX
  5
3A4
  8
0
  6
CONTINUOUS
 62
     7
 10
285.2535801998
 20
253.1977961999
 30
0.0
  0
VERTEX
  5
3A5
  8
0
  6
CONTINUOUS
 62
     7
 10
284.5207053295
 20
253.1695316774
 30
0.0
  0
VERTEX
  5
3A6
  8
0
  6
CONTINUOUS
 62
     7
 10
283.6700934044
 20
253.1385789854
 30
0.0
  0
VERTEX
  5
3A7
  8
0
  6
CONTINUOUS
 62
     7
 10
282.6526719204
 20
253.1040917379
 30
0.0
  0
VERTEX
  5
3A8
  8
0
  6
CONTINUOUS
 62
     7
 10
281.5059798828
 20
253.0684720022
 30
0.0
  0
VERTEX
  5
3A9
  8
0
  6
CONTINUOUS
 62
     7
 10
280.2301782242
 20
253.0328165037
 30
0.0
  0
VERTEX
  5
3AA
  8
0
  6
CONTINUOUS
 62
     7
 10
274.1826194397
 20
252.918161009
 30
0.0
  0
VERTEX
  5
3AB
  8
0
  6
CONTINUOUS
 62
     7
 10
268.1655722729
 20
252.8886567098
 30
0.0
  0
VERTEX
  5
3AC
  8
0
  6
CONTINUOUS
 62
     7
 10
265.7910305134
 20
252.8996001226
 30
0.0
  0
VERTEX
  5
3AD
  8
0
  6
CONTINUOUS
 62
     7
 10
263.5559755436
 20
252.9216299993
 30
0.0
  0
VERTEX
  5
3AE
  8
0
  6
CONTINUOUS
 62
     7
 10
261.4747422806
 20
252.9524575216
 30
0.0
  0
VERTEX
  5
3AF
  8
0
  6
CONTINUOUS
 62
     7
 10
259.5473545662
 20
252.9900144083
 30
0.0
  0
VERTEX
  5
3B0
  8
0
  6
CONTINUOUS
 62
     7
 10
257.7640908829
 20
253.0326496107
 30
0.0
  0
VERTEX
  5
3B1
  8
0
  6
CONTINUOUS
 62
     7
 10
256.8546670547
 20
253.0573736173
 30
0.0
  0
VERTEX
  5
3B2
  8
0
  6
CONTINUOUS
 62
     7
 10
255.9025275579
 20
253.0854891283
 30
0.0
  0
VERTEX
  5
3B3
  8
0
  6
CONTINUOUS
 62
     7
 10
254.9076902739
 20
253.1173835737
 30
0.0
  0
VERTEX
  5
3B4
  8
0
  6
CONTINUOUS
 62
     7
 10
253.8701790443
 20
253.153486107
 30
0.0
  0
VERTEX
  5
3B5
  8
0
  6
CONTINUOUS
 62
     7
 10
252.8458225599
 20
253.192074154
 30
0.0
  0
VERTEX
  5
3B6
  8
0
  6
CONTINUOUS
 62
     7
 10
252.1775025002
 20
253.2188724023
 30
0.0
  0
VERTEX
  5
3B7
  8
0
  6
CONTINUOUS
 62
     7
 10
251.6968327633
 20
253.2389532072
 30
0.0
  0
VERTEX
  5
3B8
  8
0
  6
CONTINUOUS
 62
     7
 10
251.3827937714
 20
253.2524298173
 30
0.0
  0
VERTEX
  5
3B9
  8
0
  6
CONTINUOUS
 62
     7
 10
250.901912438
 20
253.2732377988
 30
0.0
  0
VERTEX
  5
3BA
  8
0
  6
CONTINUOUS
 62
     7
 10
250.3460007778
 20
253.2963047964
 30
0.0
  0
VERTEX
  5
3BB
  8
0
  6
CONTINUOUS
 62
     7
 10
249.7151183954
 20
253.3204327566
 30
0.0
  0
VERTEX
  5
3BC
  8
0
  6
CONTINUOUS
 62
     7
 10
249.0092712513
 20
253.3478389722
 30
0.0
  0
VERTEX
  5
3BD
  8
0
  6
CONTINUOUS
 62
     7
 10
248.2275414339
 20
253.3820579988
 30
0.0
  0
VERTEX
  5
3BE
  8
0
  6
CONTINUOUS
 62
     7
 10
247.3653900496
 20
253.4268926126
 30
0.0
  0
VERTEX
  5
3BF
  8
0
  6
CONTINUOUS
 62
     7
 10
246.4222448936
 20
253.4832428438
 30
0.0
  0
VERTEX
  5
3C0
  8
0
  6
CONTINUOUS
 62
     7
 10
245.3982221952
 20
253.551668976
 30
0.0
  0
VERTEX
  5
3C1
  8
0
  6
CONTINUOUS
 62
     7
 10
244.2934411636
 20
253.6328683836
 30
0.0
  0
VERTEX
  5
3C2
  8
0
  6
CONTINUOUS
 62
     7
 10
243.108032929
 20
253.7276576501
 30
0.0
  0
VERTEX
  5
3C3
  8
0
  6
CONTINUOUS
 62
     7
 10
241.0440492502
 20
253.9100240213
 30
0.0
  0
VERTEX
  5
3C4
  8
0
  6
CONTINUOUS
 62
     7
 10
238.7887883059
 20
254.1327188951
 30
0.0
  0
VERTEX
  5
3C5
  8
0
  6
CONTINUOUS
 62
     7
 10
236.4429461828
 20
254.3891142351
 30
0.0
  0
VERTEX
  5
3C6
  8
0
  6
CONTINUOUS
 62
     7
 10
234.0265172592
 20
254.6789656621
 30
0.0
  0
VERTEX
  5
3C7
  8
0
  6
CONTINUOUS
 62
     7
 10
231.5398681036
 20
255.0037752134
 30
0.0
  0
SEQEND
  5
8C7
  8
0
  6
CONTINUOUS
 62
     7
  0
POLYLINE
  5
46
  8
0
  6
CONTINUOUS
 62
     7
 66
     1
 10
0.0
 20
0.0
 30
0.0
  0
VERTEX
  5
3C8
  8
0
  6
CONTINUOUS
 62
     7
 10
306.5768855682
 20
254.4200192434
 30
0.0
  0
VERTEX
  5
3C9
  8
0
  6
CONTINUOUS
 62
     7
 10
306.4946669212
 20
254.7810147745
 30
0.0
  0
VERTEX
  5
3CA
  8
0
  6
CONTINUOUS
 62
     7
 10
306.3606518379
 20
255.3699980718
 30
0.0
  0
SEQEND
  5
8C6
  8
0
  6
CONTINUOUS
 62
     7
  0
POLYLINE
  5
47
  8
0
  6
CONTINUOUS
 62
     7
 66
     1
 10
0.0
 20
0.0
 30
0.0
  0
VERTEX
  5
3CB
  8
0
  6
CONTINUOUS
 62
     7
 10
231.5929847828
 20
255.3699980718
 30
0.0
  0
VERTEX
  5
3CC
  8
0
  6
CONTINUOUS
 62
     7
 10
231.4602973929
 20
254.7868500692
 30
0.0
  0
VERTEX
  5
3CD
  8
0
  6
CONTINUOUS
 62
     7
 10
231.3745471707
 20
254.4103275281
 30
0.0
  0
SEQEND
  5
8C5
  8
0
  6
CONTINUOUS
 62
     7
  0
POLYLINE
  5
48
  8
0
  6
CONTINUOUS
 62
     7
 66
     1
 10
0.0
 20
0.0
 30
0.0
  0
VERTEX
  5
3CE
  8
0
  6
CONTINUOUS
 62
     7
 10
66.4137738815
 20
255.0037752134
 30
0.0
  0
VERTEX
  5
3CF
  8
0
  6
CONTINUOUS
 62
     7
 10
65.1389139763
 20
254.8335622293
 30
0.0
  0
VERTEX
  5
3D0
  8
0
  6
CONTINUOUS
 62
     7
 10
64.0460628143
 20
254.6924959165
 30
0.0
  0
VERTEX
  5
3D1
  8
0
  6
CONTINUOUS
 62
     7
 10
63.1355422607
 20
254.5783649427
 30
0.0
  0
VERTEX
  5
3D2
  8
0
  6
CONTINUOUS
 62
     7
 10
62.4075668922
 20
254.4893334848
 30
0.0
  0
VERTEX
  5
3D3
  8
0
  6
CONTINUOUS
 62
     7
 10
61.8091720215
 20
254.4176171762
 30
0.0
  0
VERTEX
  5
3D4
  8
0
  6
CONTINUOUS
 62
     7
 10
61.3881248108
 20
254.3680261117
 30
0.0
  0
VERTEX
  5
3D5
  8
0
  6
CONTINUOUS
 62
     7
 10
60.9519499413
 20
254.3177972776
 30
0.0
  0
VERTEX
  5
3D6
  8
0
  6
CONTINUOUS
 62
     7
 10
60.4825991264
 20
254.2649935228
 30
0.0
  0
VERTEX
  5
3D7
  8
0
  6
CONTINUOUS
 62
     7
 10
59.9800604454
 20
254.2098115427
 30
0.0
  0
VERTEX
  5
3D8
  8
0
  6
CONTINUOUS
 62
     7
 10
59.4443338982
 20
254.1524420721
 30
0.0
  0
VERTEX
  5
3D9
  8
0
  6
CONTINUOUS
 62
     7
 10
58.0500262848
 20
254.0098260385
 30
0.0
  0
VERTEX
  5
3DA
  8
0
  6
CONTINUOUS
 62
     7
 10
56.4708608261
 20
253.8593302709
 30
0.0
  0
VERTEX
  5
3DB
  8
0
  6
CONTINUOUS
 62
     7
 10
55.1512974373
 20
253.7422071439
 30
0.0
  0
VERTEX
  5
3DC
  8
0
  6
CONTINUOUS
 62
     7
 10
53.8245814911
 20
253.6330293161
 30
0.0
  0
VERTEX
  5
3DD
  8
0
  6
CONTINUOUS
 62
     7
 10
52.5910276047
 20
253.5403619749
 30
0.0
  0
VERTEX
  5
3DE
  8
0
  6
CONTINUOUS
 62
     7
 10
51.4507788292
 20
253.4630845529
 30
0.0
  0
VERTEX
  5
3DF
  8
0
  6
CONTINUOUS
 62
     7
 10
50.4040020576
 20
253.4002552969
 30
0.0
  0
VERTEX
  5
3E0
  8
0
  6
CONTINUOUS
 62
     7
 10
49.4508403412
 20
253.3511351091
 30
0.0
  0
VERTEX
  5
3E1
  8
0
  6
CONTINUOUS
 62
     7
 10
48.5914486519
 20
253.3151875478
 30
0.0
  0
VERTEX
  5
3E2
  8
0
  6
CONTINUOUS
 62
     7
 10
47.8252428642
 20
253.291923855
 30
0.0
  0
VERTEX
  5
3E3
  8
0
  6
CONTINUOUS
 62
     7
 10
47.4646228424
 20
253.2824765188
 30
0.0
  0
VERTEX
  5
3E4
  8
0
  6
CONTINUOUS
 62
     7
 10
47.1109527222
 20
253.2717238409
 30
0.0
  0
VERTEX
  5
3E5
  8
0
  6
CONTINUOUS
 62
     7
 10
46.7642205826
 20
253.2592664701
 30
0.0
  0
VERTEX
  5
3E6
  8
0
  6
CONTINUOUS
 62
     7
 10
46.4244025818
 20
253.2457183343
 30
0.0
  0
VERTEX
  5
3E7
  8
0
  6
CONTINUOUS
 62
     7
 10
45.8687442413
 20
253.2226811391
 30
0.0
  0
VERTEX
  5
3E8
  8
0
  6
CONTINUOUS
 62
     7
 10
45.2535766235
 20
253.1977961999
 30
0.0
  0
VERTEX
  5
3E9
  8
0
  6
CONTINUOUS
 62
     7
 10
44.5207017532
 20
253.1695316774
 30
0.0
  0
VERTEX
  5
3EA
  8
0
  6
CONTINUOUS
 62
     7
 10
43.6700957886
 20
253.1385789854
 30
0.0
  0
VERTEX
  5
3EB
  8
0
  6
CONTINUOUS
 62
     7
 10
42.6526683441
 20
253.1040917379
 30
0.0
  0
VERTEX
  5
3EC
  8
0
  6
CONTINUOUS
 62
     7
 10
41.505982267
 20
253.0684720022
 30
0.0
  0
VERTEX
  5
3ED
  8
0
  6
CONTINUOUS
 62
     7
 10
40.2301806084
 20
253.0328165037
 30
0.0
  0
VERTEX
  5
3EE
  8
0
  6
CONTINUOUS
 62
     7
 10
34.1826218239
 20
252.918161009
 30
0.0
  0
VERTEX
  5
3EF
  8
0
  6
CONTINUOUS
 62
     7
 10
28.1655686966
 20
252.8886567098
 30
0.0
  0
VERTEX
  5
3F0
  8
0
  6
CONTINUOUS
 62
     7
 10
25.7910269371
 20
252.8996001226
 30
0.0
  0
VERTEX
  5
3F1
  8
0
  6
CONTINUOUS
 62
     7
 10
23.5559719673
 20
252.9216299993
 30
0.0
  0
VERTEX
  5
3F2
  8
0
  6
CONTINUOUS
 62
     7
 10
21.4747446648
 20
252.9524575216
 30
0.0
  0
VERTEX
  5
3F3
  8
0
  6
CONTINUOUS
 62
     7
 10
19.5473569504
 20
252.9900144083
 30
0.0
  0
VERTEX
  5
3F4
  8
0
  6
CONTINUOUS
 62
     7
 10
17.7640932671
 20
253.0326496107
 30
0.0
  0
VERTEX
  5
3F5
  8
0
  6
CONTINUOUS
 62
     7
 10
16.8546694389
 20
253.0573736173
 30
0.0
  0
VERTEX
  5
3F6
  8
0
  6
CONTINUOUS
 62
     7
 10
15.9025329224
 20
253.0854891283
 30
0.0
  0
VERTEX
  5
3F7
  8
0
  6
CONTINUOUS
 62
     7
 10
14.9076837173
 20
253.1173835737
 30
0.0
  0
VERTEX
  5
3F8
  8
0
  6
CONTINUOUS
 62
     7
 10
13.8701814285
 20
253.153486107
 30
0.0
  0
VERTEX
  5
3F9
  8
0
  6
CONTINUOUS
 62
     7
 10
12.8458279243
 20
253.192074154
 30
0.0
  0
VERTEX
  5
3FA
  8
0
  6
CONTINUOUS
 62
     7
 10
12.1775048843
 20
253.2188724023
 30
0.0
  0
VERTEX
  5
3FB
  8
0
  6
CONTINUOUS
 62
     7
 10
11.696829187
 20
253.2389532072
 30
0.0
  0
VERTEX
  5
3FC
  8
0
  6
CONTINUOUS
 62
     7
 10
11.3827961555
 20
253.2524298173
 30
0.0
  0
VERTEX
  5
3FD
  8
0
  6
CONTINUOUS
 62
     7
 10
10.9019058815
 20
253.2732377988
 30
0.0
  0
VERTEX
  5
3FE
  8
0
  6
CONTINUOUS
 62
     7
 10
10.3459972015
 20
253.2963047964
 30
0.0
  0
VERTEX
  5
3FF
  8
0
  6
CONTINUOUS
 62
     7
 10
9.7151177994
 20
253.3204327566
 30
0.0
  0
VERTEX
  5
400
  8
0
  6
CONTINUOUS
 62
     7
 10
9.009267675
 20
253.3478389722
 30
0.0
  0
VERTEX
  5
401
  8
0
  6
CONTINUOUS
 62
     7
 10
8.2275408379
 20
253.3820579988
 30
0.0
  0
VERTEX
  5
402
  8
0
  6
CONTINUOUS
 62
     7
 10
7.365395414
 20
253.4268926126
 30
0.0
  0
VERTEX
  5
403
  8
0
  6
CONTINUOUS
 62
     7
 10
6.4222353569
 20
253.4832428438
 30
0.0
  0
VERTEX
  5
404
  8
0
  6
CONTINUOUS
 62
     7
 10
5.3982275597
 20
253.551668976
 30
0.0
  0
VERTEX
  5
405
  8
0
  6
CONTINUOUS
 62
     7
 10
4.2934435478
 20
253.6328683836
 30
0.0
  0
VERTEX
  5
406
  8
0
  6
CONTINUOUS
 62
     7
 10
3.1080263725
 20
253.7276576501
 30
0.0
  0
VERTEX
  5
407
  8
0
  6
CONTINUOUS
 62
     7
 10
1.0440605751
 20
253.9100240213
 30
0.0
  0
VERTEX
  5
408
  8
0
  6
CONTINUOUS
 62
     7
 10
-1.2112122902
 20
254.1327188951
 30
0.0
  0
VERTEX
  5
409
  8
0
  6
CONTINUOUS
 62
     7
 10
-3.5570603737
 20
254.3891142351
 30
0.0
  0
VERTEX
  5
40A
  8
0
  6
CONTINUOUS
 62
     7
 10
-5.9734803566
 20
254.6789656621
 30
0.0
  0
VERTEX
  5
40B
  8
0
  6
CONTINUOUS
 62
     7
 10
-8.4601384529
 20
255.0037752134
 30
0.0
  0
SEQEND
  5
8C4
  8
0
  6
CONTINUOUS
 62
     7
  0
POLYLINE
  5
49
  8
0
  6
CONTINUOUS
 62
     7
 66
     1
 10
0.0
 20
0.0
 30
0.0
  0
VERTEX
  5
40C
  8
0
  6
CONTINUOUS
 62
     7
 10
66.5768879524
 20
254.4200192434
 30
0.0
  0
VERTEX
  5
40D
  8
0
  6
CONTINUOUS
 62
     7
 10
66.4946693054
 20
254.7810147745
 30
0.0
  0
VERTEX
  5
40E
  8
0
  6
CONTINUOUS
 62
     7
 10
66.3606542221
 20
255.3699980718
 30
0.0
  0
SEQEND
  5
8C3
  8
0
  6
CONTINUOUS
 62
     7
  0
POLYLINE
  5
4A
  8
0
  6
CONTINUOUS
 62
     7
 66
     1
 10
0.0
 20
0.0
 30
0.0
  0
VERTEX
  5
40F
  8
0
  6
CONTINUOUS
 62
     7
 10
-8.4070187935
 20
255.3699980718
 30
0.0
  0
VERTEX
  5
410
  8
0
  6
CONTINUOUS
 62
     7
 10
-8.5396987328
 20
254.7868500692
 30
0.0
  0
VERTEX
  5
411
  8
0
  6
CONTINUOUS
 62
     7
 10
-8.6254578957
 20
254.4103275281
 30
0.0
  0
SEQEND
  5
8C2
  8
0
  6
CONTINUOUS
 62
     7
  0
POLYLINE
  5
4B
  8
0
  6
CONTINUOUS
 62
     7
 66
     1
 10
0.0
 20
0.0
 30
0.0
  0
VERTEX
  5
412
  8
0
  6
CONTINUOUS
 62
     7
 10
426.4137762657
 20
255.0037752134
 30
0.0
  0
VERTEX
  5
413
  8
0
  6
CONTINUOUS
 62
     7
 10
425.1389044395
 20
254.8335622293
 30
0.0
  0
VERTEX
  5
414
  8
0
  6
CONTINUOUS
 62
     7
 10
424.0460651985
 20
254.6924959165
 30
0.0
  0
VERTEX
  5
415
  8
0
  6
CONTINUOUS
 62
     7
 10
423.1355446449
 20
254.5783649427
 30
0.0
  0
VERTEX
  5
416
  8
0
  6
CONTINUOUS
 62
     7
 10
422.4075573555
 20
254.4893334848
 30
0.0
  0
VERTEX
  5
417
  8
0
  6
CONTINUOUS
 62
     7
 10
421.8091744057
 20
254.4176171762
 30
0.0
  0
VERTEX
  5
418
  8
0
  6
CONTINUOUS
 62
     7
 10
421.388127195
 20
254.3680261117
 30
0.0
  0
VERTEX
  5
419
  8
0
  6
CONTINUOUS
 62
     7
 10
420.9519404045
 20
254.3177972776
 30
0.0
  0
VERTEX
  5
41A
  8
0
  6
CONTINUOUS
 62
     7
 10
420.4825895897
 20
254.2649935228
 30
0.0
  0
VERTEX
  5
41B
  8
0
  6
CONTINUOUS
 62
     7
 10
419.9800747505
 20
254.2098115427
 30
0.0
  0
VERTEX
  5
41C
  8
0
  6
CONTINUOUS
 62
     7
 10
419.4443243614
 20
254.1524420721
 30
0.0
  0
VERTEX
  5
41D
  8
0
  6
CONTINUOUS
 62
     7
 10
418.050028669
 20
254.0098260385
 30
0.0
  0
VERTEX
  5
41E
  8
0
  6
CONTINUOUS
 62
     7
 10
416.4708632103
 20
253.8593302709
 30
0.0
  0
VERTEX
  5
41F
  8
0
  6
CONTINUOUS
 62
     7
 10
415.1512879005
 20
253.7422071439
 30
0.0
  0
VERTEX
  5
420
  8
0
  6
CONTINUOUS
 62
     7
 10
413.8245838753
 20
253.6330293161
 30
0.0
  0
VERTEX
  5
421
  8
0
  6
CONTINUOUS
 62
     7
 10
412.5910299889
 20
253.5403619749
 30
0.0
  0
VERTEX
  5
422
  8
0
  6
CONTINUOUS
 62
     7
 10
411.4507692925
 20
253.4630845529
 30
0.0
  0
VERTEX
  5
423
  8
0
  6
CONTINUOUS
 62
     7
 10
410.4039925209
 20
253.4002552969
 30
0.0
  0
VERTEX
  5
424
  8
0
  6
CONTINUOUS
 62
     7
 10
409.4508427254
 20
253.3511351091
 30
0.0
  0
VERTEX
  5
425
  8
0
  6
CONTINUOUS
 62
     7
 10
408.5914510361
 20
253.3151875478
 30
0.0
  0
VERTEX
  5
426
  8
0
  6
CONTINUOUS
 62
     7
 10
407.8252333275
 20
253.291923855
 30
0.0
  0
VERTEX
  5
427
  8
0
  6
CONTINUOUS
 62
     7
 10
407.4646252266
 20
253.2824765188
 30
0.0
  0
VERTEX
  5
428
  8
0
  6
CONTINUOUS
 62
     7
 10
407.1109551064
 20
253.2717238409
 30
0.0
  0
VERTEX
  5
429
  8
0
  6
CONTINUOUS
 62
     7
 10
406.7642110458
 20
253.2592664701
 30
0.0
  0
VERTEX
  5
42A
  8
0
  6
CONTINUOUS
 62
     7
 10
406.424404966
 20
253.2457183343
 30
0.0
  0
VERTEX
  5
42B
  8
0
  6
CONTINUOUS
 62
     7
 10
405.8687466255
 20
253.2226811391
 30
0.0
  0
VERTEX
  5
42C
  8
0
  6
CONTINUOUS
 62
     7
 10
405.2535790077
 20
253.1977961999
 30
0.0
  0
VERTEX
  5
42D
  8
0
  6
CONTINUOUS
 62
     7
 10
404.5207041374
 20
253.1695316774
 30
0.0
  0
VERTEX
  5
42E
  8
0
  6
CONTINUOUS
 62
     7
 10
403.6700981728
 20
253.1385789854
 30
0.0
  0
VERTEX
  5
42F
  8
0
  6
CONTINUOUS
 62
     7
 10
402.6526707283
 20
253.1040917379
 30
0.0
  0
VERTEX
  5
430
  8
0
  6
CONTINUOUS
 62
     7
 10
401.5059846512
 20
253.0684720022
 30
0.0
  0
VERTEX
  5
431
  8
0
  6
CONTINUOUS
 62
     7
 10
400.2301710716
 20
253.0328165037
 30
0.0
  0
VERTEX
  5
432
  8
0
  6
CONTINUOUS
 62
     7
 10
394.1826242081
 20
252.918161009
 30
0.0
  0
VERTEX
  5
433
  8
0
  6
CONTINUOUS
 62
     7
 10
388.1655710808
 20
252.8886567098
 30
0.0
  0
VERTEX
  5
434
  8
0
  6
CONTINUOUS
 62
     7
 10
385.7910293213
 20
252.8996001226
 30
0.0
  0
VERTEX
  5
435
  8
0
  6
CONTINUOUS
 62
     7
 10
383.5559743515
 20
252.9216299993
 30
0.0
  0
VERTEX
  5
436
  8
0
  6
CONTINUOUS
 62
     7
 10
381.474747049
 20
252.9524575216
 30
0.0
  0
VERTEX
  5
437
  8
0
  6
CONTINUOUS
 62
     7
 10
379.5473593346
 20
252.9900144083
 30
0.0
  0
VERTEX
  5
438
  8
0
  6
CONTINUOUS
 62
     7
 10
377.7640956512
 20
253.0326496107
 30
0.0
  0
VERTEX
  5
439
  8
0
  6
CONTINUOUS
 62
     7
 10
376.8546718231
 20
253.0573736173
 30
0.0
  0
VERTEX
  5
43A
  8
0
  6
CONTINUOUS
 62
     7
 10
375.9025233856
 20
253.0854891283
 30
0.0
  0
VERTEX
  5
43B
  8
0
  6
CONTINUOUS
 62
     7
 10
374.9076861015
 20
253.1173835737
 30
0.0
  0
VERTEX
  5
43C
  8
0
  6
CONTINUOUS
 62
     7
 10
373.8701838127
 20
253.153486107
 30
0.0
  0
VERTEX
  5
43D
  8
0
  6
CONTINUOUS
 62
     7
 10
372.8458183876
 20
253.192074154
 30
0.0
  0
VERTEX
  5
43E
  8
0
  6
CONTINUOUS
 62
     7
 10
372.1775072685
 20
253.2188724023
 30
0.0
  0
VERTEX
  5
43F
  8
0
  6
CONTINUOUS
 62
     7
 10
371.6968315712
 20
253.2389532072
 30
0.0
  0
VERTEX
  5
440
  8
0
  6
CONTINUOUS
 62
     7
 10
371.3827866188
 20
253.2524298173
 30
0.0
  0
VERTEX
  5
441
  8
0
  6
CONTINUOUS
 62
     7
 10
370.9019082657
 20
253.2732377988
 30
0.0
  0
VERTEX
  5
442
  8
0
  6
CONTINUOUS
 62
     7
 10
370.3459995857
 20
253.2963047964
 30
0.0
  0
VERTEX
  5
443
  8
0
  6
CONTINUOUS
 62
     7
 10
369.7151201836
 20
253.3204327566
 30
0.0
  0
VERTEX
  5
444
  8
0
  6
CONTINUOUS
 62
     7
 10
369.0092700592
 20
253.3478389722
 30
0.0
  0
VERTEX
  5
445
  8
0
  6
CONTINUOUS
 62
     7
 10
368.227543222
 20
253.3820579988
 30
0.0
  0
VERTEX
  5
446
  8
0
  6
CONTINUOUS
 62
     7
 10
367.3653858772
 20
253.4268926126
 30
0.0
  0
VERTEX
  5
447
  8
0
  6
CONTINUOUS
 62
     7
 10
366.422249662
 20
253.4832428438
 30
0.0
  0
VERTEX
  5
448
  8
0
  6
CONTINUOUS
 62
     7
 10
365.3982180229
 20
253.551668976
 30
0.0
  0
VERTEX
  5
449
  8
0
  6
CONTINUOUS
 62
     7
 10
364.2934340111
 20
253.6328683836
 30
0.0
  0
VERTEX
  5
44A
  8
0
  6
CONTINUOUS
 62
     7
 10
363.1080287567
 20
253.7276576501
 30
0.0
  0
VERTEX
  5
44B
  8
0
  6
CONTINUOUS
 62
     7
 10
361.0440510384
 20
253.9100240213
 30
0.0
  0
VERTEX
  5
44C
  8
0
  6
CONTINUOUS
 62
     7
 10
358.788790094
 20
254.1327188951
 30
0.0
  0
VERTEX
  5
44D
  8
0
  6
CONTINUOUS
 62
     7
 10
356.4429420105
 20
254.3891142351
 30
0.0
  0
VERTEX
  5
44E
  8
0
  6
CONTINUOUS
 62
     7
 10
354.0265220276
 20
254.6789656621
 30
0.0
  0
VERTEX
  5
44F
  8
0
  6
CONTINUOUS
 62
     7
 10
351.5398639313
 20
255.0037752134
 30
0.0
  0
SEQEND
  5
8C1
  8
0
  6
CONTINUOUS
 62
     7
  0
POLYLINE
  5
4C
  8
0
  6
CONTINUOUS
 62
     7
 66
     1
 10
0.0
 20
0.0
 30
0.0
  0
VERTEX
  5
450
  8
0
  6
CONTINUOUS
 62
     7
 10
426.5768784157
 20
254.4200192434
 30
0.0
  0
VERTEX
  5
451
  8
0
  6
CONTINUOUS
 62
     7
 10
426.4946716896
 20
254.7810147745
 30
0.0
  0
VERTEX
  5
452
  8
0
  6
CONTINUOUS
 62
     7
 10
426.3606566063
 20
255.3699980718
 30
0.0
  0
SEQEND
  5
8C0
  8
0
  6
CONTINUOUS
 62
     7
  0
POLYLINE
  5
4D
  8
0
  6
CONTINUOUS
 62
     7
 66
     1
 10
0.0
 20
0.0
 30
0.0
  0
VERTEX
  5
453
  8
0
  6
CONTINUOUS
 62
     7
 10
351.5929835907
 20
255.3699980718
 30
0.0
  0
VERTEX
  5
454
  8
0
  6
CONTINUOUS
 62
     7
 10
351.4603036514
 20
254.7868500692
 30
0.0
  0
VERTEX
  5
455
  8
0
  6
CONTINUOUS
 62
     7
 10
351.3745444885
 20
254.4103275281
 30
0.0
  0
SEQEND
  5
8BF
  8
0
  6
CONTINUOUS
 62
     7
  0
POLYLINE
  5
4E
  8
0
  6
CONTINUOUS
 62
     7
 66
     1
 10
0.0
 20
0.0
 30
0.0
  0
VERTEX
  5
456
  8
0
  6
CONTINUOUS
 62
     7
 10
186.4137697092
 20
255.0037752134
 30
0.0
  0
VERTEX
  5
457
  8
0
  6
CONTINUOUS
 62
     7
 10
185.138909804
 20
254.8335622293
 30
0.0
  0
VERTEX
  5
458
  8
0
  6
CONTINUOUS
 62
     7
 10
184.0460690728
 20
254.6924959165
 30
0.0
  0
VERTEX
  5
459
  8
0
  6
CONTINUOUS
 62
     7
 10
183.1355410687
 20
254.5783649427
 30
0.0
  0
VERTEX
  5
45A
  8
0
  6
CONTINUOUS
 62
     7
 10
182.4075657002
 20
254.4893334848
 30
0.0
  0
VERTEX
  5
45B
  8
0
  6
CONTINUOUS
 62
     7
 10
181.8091738096
 20
254.4176171762
 30
0.0
  0
VERTEX
  5
45C
  8
0
  6
CONTINUOUS
 62
     7
 10
181.3881265989
 20
254.3680261117
 30
0.0
  0
VERTEX
  5
45D
  8
0
  6
CONTINUOUS
 62
     7
 10
180.9519457689
 20
254.3177972776
 30
0.0
  0
VERTEX
  5
45E
  8
0
  6
CONTINUOUS
 62
     7
 10
180.4825979343
 20
254.2649935228
 30
0.0
  0
VERTEX
  5
45F
  8
0
  6
CONTINUOUS
 62
     7
 10
179.9800652138
 20
254.2098115427
 30
0.0
  0
VERTEX
  5
460
  8
0
  6
CONTINUOUS
 62
     7
 10
179.4443267456
 20
254.1524420721
 30
0.0
  0
VERTEX
  5
461
  8
0
  6
CONTINUOUS
 62
     7
 10
178.0500221125
 20
254.0098260385
 30
0.0
  0
VERTEX
  5
462
  8
0
  6
CONTINUOUS
 62
     7
 10
176.4708566538
 20
253.8593302709
 30
0.0
  0
VERTEX
  5
463
  8
0
  6
CONTINUOUS
 62
     7
 10
175.1512962452
 20
253.7422071439
 30
0.0
  0
VERTEX
  5
464
  8
0
  6
CONTINUOUS
 62
     7
 10
173.8245862595
 20
253.6330293161
 30
0.0
  0
VERTEX
  5
465
  8
0
  6
CONTINUOUS
 62
     7
 10
172.5910234324
 20
253.5403619749
 30
0.0
  0
VERTEX
  5
466
  8
0
  6
CONTINUOUS
 62
     7
 10
171.4507746569
 20
253.4630845529
 30
0.0
  0
VERTEX
  5
467
  8
0
  6
CONTINUOUS
 62
     7
 10
170.4040008656
 20
253.4002552969
 30
0.0
  0
VERTEX
  5
468
  8
0
  6
CONTINUOUS
 62
     7
 10
169.4508451096
 20
253.3511351091
 30
0.0
  0
VERTEX
  5
469
  8
0
  6
CONTINUOUS
 62
     7
 10
168.5914474598
 20
253.3151875478
 30
0.0
  0
VERTEX
  5
46A
  8
0
  6
CONTINUOUS
 62
     7
 10
167.8252386919
 20
253.291923855
 30
0.0
  0
VERTEX
  5
46B
  8
0
  6
CONTINUOUS
 62
     7
 10
167.4646276108
 20
253.2824765188
 30
0.0
  0
VERTEX
  5
46C
  8
0
  6
CONTINUOUS
 62
     7
 10
167.1109574905
 20
253.2717238409
 30
0.0
  0
VERTEX
  5
46D
  8
0
  6
CONTINUOUS
 62
     7
 10
166.7642164103
 20
253.2592664701
 30
0.0
  0
VERTEX
  5
46E
  8
0
  6
CONTINUOUS
 62
     7
 10
166.4244073502
 20
253.2457183343
 30
0.0
  0
VERTEX
  5
46F
  8
0
  6
CONTINUOUS
 62
     7
 10
165.8687460295
 20
253.2226811391
 30
0.0
  0
VERTEX
  5
470
  8
0
  6
CONTINUOUS
 62
     7
 10
165.2535784117
 20
253.1977961999
 30
0.0
  0
VERTEX
  5
471
  8
0
  6
CONTINUOUS
 62
     7
 10
164.5207035414
 20
253.1695316774
 30
0.0
  0
VERTEX
  5
472
  8
0
  6
CONTINUOUS
 62
     7
 10
163.6700945965
 20
253.1385789854
 30
0.0
  0
VERTEX
  5
473
  8
0
  6
CONTINUOUS
 62
     7
 10
162.6526731125
 20
253.1040917379
 30
0.0
  0
VERTEX
  5
474
  8
0
  6
CONTINUOUS
 62
     7
 10
161.5059810749
 20
253.0684720022
 30
0.0
  0
VERTEX
  5
475
  8
0
  6
CONTINUOUS
 62
     7
 10
160.230176436
 20
253.0328165037
 30
0.0
  0
VERTEX
  5
476
  8
0
  6
CONTINUOUS
 62
     7
 10
154.1826206318
 20
252.918161009
 30
0.0
  0
VERTEX
  5
477
  8
0
  6
CONTINUOUS
 62
     7
 10
148.165573465
 20
252.8886567098
 30
0.0
  0
VERTEX
  5
478
  8
0
  6
CONTINUOUS
 62
     7
 10
145.7910317055
 20
252.8996001226
 30
0.0
  0
VERTEX
  5
479
  8
0
  6
CONTINUOUS
 62
     7
 10
143.5559767357
 20
252.9216299993
 30
0.0
  0
VERTEX
  5
47A
  8
0
  6
CONTINUOUS
 62
     7
 10
141.4747434727
 20
252.9524575216
 30
0.0
  0
VERTEX
  5
47B
  8
0
  6
CONTINUOUS
 62
     7
 10
139.5473557583
 20
252.9900144083
 30
0.0
  0
VERTEX
  5
47C
  8
0
  6
CONTINUOUS
 62
     7
 10
137.764092075
 20
253.0326496107
 30
0.0
  0
VERTEX
  5
47D
  8
0
  6
CONTINUOUS
 62
     7
 10
136.8546682468
 20
253.0573736173
 30
0.0
  0
VERTEX
  5
47E
  8
0
  6
CONTINUOUS
 62
     7
 10
135.9025257698
 20
253.0854891283
 30
0.0
  0
VERTEX
  5
47F
  8
0
  6
CONTINUOUS
 62
     7
 10
134.9076884857
 20
253.1173835737
 30
0.0
  0
VERTEX
  5
480
  8
0
  6
CONTINUOUS
 62
     7
 10
133.8701802364
 20
253.153486107
 30
0.0
  0
VERTEX
  5
481
  8
0
  6
CONTINUOUS
 62
     7
 10
132.8458207718
 20
253.192074154
 30
0.0
  0
VERTEX
  5
482
  8
0
  6
CONTINUOUS
 62
     7
 10
132.1775036922
 20
253.2188724023
 30
0.0
  0
VERTEX
  5
483
  8
0
  6
CONTINUOUS
 62
     7
 10
131.6968339554
 20
253.2389532072
 30
0.0
  0
VERTEX
  5
484
  8
0
  6
CONTINUOUS
 62
     7
 10
131.3827949635
 20
253.2524298173
 30
0.0
  0
VERTEX
  5
485
  8
0
  6
CONTINUOUS
 62
     7
 10
130.9019106499
 20
253.2732377988
 30
0.0
  0
VERTEX
  5
486
  8
0
  6
CONTINUOUS
 62
     7
 10
130.3460019699
 20
253.2963047964
 30
0.0
  0
VERTEX
  5
487
  8
0
  6
CONTINUOUS
 62
     7
 10
129.7151166073
 20
253.3204327566
 30
0.0
  0
VERTEX
  5
488
  8
0
  6
CONTINUOUS
 62
     7
 10
129.0092724434
 20
253.3478389722
 30
0.0
  0
VERTEX
  5
489
  8
0
  6
CONTINUOUS
 62
     7
 10
128.2275396458
 20
253.3820579988
 30
0.0
  0
VERTEX
  5
48A
  8
0
  6
CONTINUOUS
 62
     7
 10
127.3653882614
 20
253.4268926126
 30
0.0
  0
VERTEX
  5
48B
  8
0
  6
CONTINUOUS
 62
     7
 10
126.4222460857
 20
253.4832428438
 30
0.0
  0
VERTEX
  5
48C
  8
0
  6
CONTINUOUS
 62
     7
 10
125.3982204071
 20
253.551668976
 30
0.0
  0
VERTEX
  5
48D
  8
0
  6
CONTINUOUS
 62
     7
 10
124.2934423557
 20
253.6328683836
 30
0.0
  0
VERTEX
  5
48E
  8
0
  6
CONTINUOUS
 62
     7
 10
123.1080311409
 20
253.7276576501
 30
0.0
  0
VERTEX
  5
48F
  8
0
  6
CONTINUOUS
 62
     7
 10
121.0440474621
 20
253.9100240213
 30
0.0
  0
VERTEX
  5
490
  8
0
  6
CONTINUOUS
 62
     7
 10
118.7887865177
 20
254.1327188951
 30
0.0
  0
VERTEX
  5
491
  8
0
  6
CONTINUOUS
 62
     7
 10
116.4429443947
 20
254.3891142351
 30
0.0
  0
VERTEX
  5
492
  8
0
  6
CONTINUOUS
 62
     7
 10
114.0265184513
 20
254.6789656621
 30
0.0
  0
VERTEX
  5
493
  8
0
  6
CONTINUOUS
 62
     7
 10
111.5398663155
 20
255.0037752134
 30
0.0
  0
SEQEND
  5
8BE
  8
0
  6
CONTINUOUS
 62
     7
  0
POLYLINE
  5
4F
  8
0
  6
CONTINUOUS
 62
     7
 66
     1
 10
0.0
 20
0.0
 30
0.0
  0
VERTEX
  5
494
  8
0
  6
CONTINUOUS
 62
     7
 10
186.57688229
 20
254.4200192434
 30
0.0
  0
VERTEX
  5
495
  8
0
  6
CONTINUOUS
 62
     7
 10
186.4946666232
 20
254.7810147745
 30
0.0
  0
VERTEX
  5
496
  8
0
  6
CONTINUOUS
 62
     7
 10
186.36065303
 20
255.3699980718
 30
0.0
  0
SEQEND
  5
8BD
  8
0
  6
CONTINUOUS
 62
     7
  0
POLYLINE
  5
50
  8
0
  6
CONTINUOUS
 62
     7
 66
     1
 10
0.0
 20
0.0
 30
0.0
  0
VERTEX
  5
497
  8
0
  6
CONTINUOUS
 62
     7
 10
111.5929859749
 20
255.3699980718
 30
0.0
  0
VERTEX
  5
498
  8
0
  6
CONTINUOUS
 62
     7
 10
111.4603000752
 20
254.7868500692
 30
0.0
  0
VERTEX
  5
499
  8
0
  6
CONTINUOUS
 62
     7
 10
111.3745468727
 20
254.4103275281
 30
0.0
  0
SEQEND
  5
8BC
  8
0
  6
CONTINUOUS
 62
     7
  0
LINE
  5
51
  8
0
  6
CONTINUOUS
 62
     7
 10
21.8038934341
 20
163.0157218543
 30
0.0
 11
25.5625384918
 21
163.0157218543
 31
0.0
  0
LINE
  5
52
  8
0
  6
CONTINUOUS
 62
     7
 10
25.5625384918
 20
161.8157218439
 30
0.0
 11
21.8038934341
 21
161.8157218439
 31
0.0
  0
LINE
  5
53
  8
0
  6
CONTINUOUS
 62
     7
 10
25.5625384918
 20
163.0157218543
 30
0.0
 11
32.3911088577
 21
163.0157218543
 31
0.0
  0
LINE
  5
54
  8
0
  6
CONTINUOUS
 62
     7
 10
25.5625384918
 20
161.8157218439
 30
0.0
 11
32.3911088577
 21
161.8157218439
 31
0.0
  0
LINE
  5
55
  8
0
  6
CONTINUOUS
 62
     7
 10
32.3911088577
 20
163.0157218543
 30
0.0
 11
36.1497539154
 21
163.0157218543
 31
0.0
  0
LINE
  5
56
  8
0
  6
CONTINUOUS
 62
     7
 10
36.1497539154
 20
161.8157218439
 30
0.0
 11
32.3911088577
 21
161.8157218439
 31
0.0
  0
LINE
  5
57
  8
0
  6
CONTINUOUS
 62
     7
 10
385.5625289551
 20
161.8157218439
 30
0.0
 11
381.8038838974
 21
161.8157218439
 31
0.0
  0
LINE
  5
58
  8
0
  6
CONTINUOUS
 62
     7
 10
381.8038838974
 20
163.0157218543
 30
0.0
 11
385.5625289551
 21
163.0157218543
 31
0.0
  0
LINE
  5
59
  8
0
  6
CONTINUOUS
 62
     7
 10
396.1497443787
 20
161.8157218439
 30
0.0
 11
392.391099321
 21
161.8157218439
 31
0.0
  0
LINE
  5
5A
  8
0
  6
CONTINUOUS
 62
     7
 10
392.391099321
 20
163.0157218543
 30
0.0
 11
396.1497443787
 21
163.0157218543
 31
0.0
  0
LINE
  5
5B
  8
0
  6
CONTINUOUS
 62
     7
 10
385.5625289551
 20
161.8157218439
 30
0.0
 11
392.391099321
 21
161.8157218439
 31
0.0
  0
LINE
  5
5C
  8
0
  6
CONTINUOUS
 62
     7
 10
385.5625289551
 20
163.0157218543
 30
0.0
 11
392.391099321
 21
163.0157218543
 31
0.0
  0
LINE
  5
5D
  8
0
  6
CONTINUOUS
 62
     7
 10
16.9768231979
 20
161.8157218439
 30
0.0
 11
16.9768231979
 21
163.0157218543
 31
0.0
  0
LINE
  5
5E
  8
0
  6
CONTINUOUS
 62
     7
 10
21.8038934341
 20
163.0157218543
 30
0.0
 11
16.9768231979
 21
163.0157218543
 31
0.0
  0
LINE
  5
5F
  8
0
  6
CONTINUOUS
 62
     7
 10
16.9768231979
 20
161.8157218439
 30
0.0
 11
21.8038934341
 21
161.8157218439
 31
0.0
  0
LINE
  5
60
  8
0
  6
CONTINUOUS
 62
     7
 10
40.9768241516
 20
161.8157218439
 30
0.0
 11
40.9768241516
 21
163.0157218543
 31
0.0
  0
LINE
  5
61
  8
0
  6
CONTINUOUS
 62
     7
 10
40.9768241516
 20
163.0157218543
 30
0.0
 11
36.1497539154
 21
163.0157218543
 31
0.0
  0
LINE
  5
62
  8
0
  6
CONTINUOUS
 62
     7
 10
36.1497539154
 20
161.8157218439
 30
0.0
 11
40.9768241516
 21
161.8157218439
 31
0.0
  0
LINE
  5
63
  8
0
  6
CONTINUOUS
 62
     7
 10
376.9768136612
 20
161.8157218439
 30
0.0
 11
376.9768136612
 21
163.0157218543
 31
0.0
  0
LINE
  5
64
  8
0
  6
CONTINUOUS
 62
     7
 10
376.9768136612
 20
161.8157218439
 30
0.0
 11
381.8038838974
 21
161.8157218439
 31
0.0
  0
LINE
  5
65
  8
0
  6
CONTINUOUS
 62
     7
 10
381.8038838974
 20
163.0157218543
 30
0.0
 11
376.9768136612
 21
163.0157218543
 31
0.0
  0
LINE
  5
66
  8
0
  6
CONTINUOUS
 62
     7
 10
400.9768146149
 20
161.8157218439
 30
0.0
 11
400.9768146149
 21
163.0157218543
 31
0.0
  0
LINE
  5
67
  8
0
  6
CONTINUOUS
 62
     7
 10
396.1497443787
 20
161.8157218439
 30
0.0
 11
400.9768146149
 21
161.8157218439
 31
0.0
  0
LINE
  5
68
  8
0
  6
CONTINUOUS
 62
     7
 10
400.9768146149
 20
163.0157218543
 30
0.0
 11
396.1497443787
 21
163.0157218543
 31
0.0
  0
POLYLINE
  5
69
  8
0
  6
CONTINUOUS
 62
     7
 66
     1
 10
0.0
 20
0.0
 30
0.0
  0
VERTEX
  5
49A
  8
0
  6
CONTINUOUS
 62
     7
 10
384.9768179527
 20
228.0157218915
 30
0.0
  0
VERTEX
  5
49B
  8
0
  6
CONTINUOUS
 62
     7
 10
384.7817319504
 20
227.8206299287
 30
0.0
  0
VERTEX
  5
49C
  8
0
  6
CONTINUOUS
 62
     7
 10
384.5941322914
 20
227.6330362302
 30
0.0
  0
VERTEX
  5
49D
  8
0
  6
CONTINUOUS
 62
     7
 10
384.4212430588
 20
227.4601529581
 30
0.0
  0
VERTEX
  5
49E
  8
0
  6
CONTINUOUS
 62
     7
 10
384.2697161308
 20
227.3086141092
 30
0.0
  0
VERTEX
  5
49F
  8
0
  6
CONTINUOUS
 62
     7
 10
384.145345079
 20
227.1842549783
 30
0.0
  0
VERTEX
  5
4A0
  8
0
  6
CONTINUOUS
 62
     7
 10
384.0529340378
 20
227.0918439371
 30
0.0
  0
VERTEX
  5
4A1
  8
0
  6
CONTINUOUS
 62
     7
 10
383.9960354439
 20
227.0349393827
 30
0.0
  0
VERTEX
  5
4A2
  8
0
  6
CONTINUOUS
 62
     7
 10
383.9768189064
 20
227.0157228452
 30
0.0
  0
SEQEND
  5
8BB
  8
0
  6
CONTINUOUS
 62
     7
  0
LINE
  5
6A
  8
0
  6
CONTINUOUS
 62
     7
 10
383.9768189064
 20
227.0157228452
 30
0.0
 11
33.9768189064
 21
227.0157228452
 31
0.0
  0
POLYLINE
  5
6B
  8
0
  6
CONTINUOUS
 62
     7
 66
     1
 10
0.0
 20
0.0
 30
0.0
  0
VERTEX
  5
4A3
  8
0
  6
CONTINUOUS
 62
     7
 10
32.9768198601
 20
228.0157218915
 30
0.0
  0
VERTEX
  5
4A4
  8
0
  6
CONTINUOUS
 62
     7
 10
33.1719058624
 20
227.8206299287
 30
0.0
  0
VERTEX
  5
4A5
  8
0
  6
CONTINUOUS
 62
     7
 10
33.3595055214
 20
227.6330362302
 30
0.0
  0
VERTEX
  5
4A6
  8
0
  6
CONTINUOUS
 62
     7
 10
33.532394754
 20
227.4601529581
 30
0.0
  0
VERTEX
  5
4A7
  8
0
  6
CONTINUOUS
 62
     7
 10
33.683921682
 20
227.3086141092
 30
0.0
  0
VERTEX
  5
4A8
  8
0
  6
CONTINUOUS
 62
     7
 10
33.8082927338
 20
227.1842549783
 30
0.0
  0
VERTEX
  5
4A9
  8
0
  6
CONTINUOUS
 62
     7
 10
33.900703775
 20
227.0918439371
 30
0.0
  0
VERTEX
  5
4AA
  8
0
  6
CONTINUOUS
 62
     7
 10
33.9576023689
 20
227.0349393827
 30
0.0
  0
VERTEX
  5
4AB
  8
0
  6
CONTINUOUS
 62
     7
 10
33.9768189064
 20
227.0157228452
 30
0.0
  0
SEQEND
  5
8BA
  8
0
  6
CONTINUOUS
 62
     7
  0
LINE
  5
6C
  8
0
  6
CONTINUOUS
 62
     7
 10
-14.6231871971
 20
236.0157202226
 30
0.0
 11
-14.6231871971
 21
236.6157244188
 31
0.0
  0
ARC
  5
6D
  8
0
  6
CONTINUOUS
 62
     7
 10
-14.2231810936
 20
236.6157218439
 30
0.0
 40
0.3999999999999844
 50
90.0
 51
180.0
  0
POLYLINE
  5
6E
  8
0
  6
CONTINUOUS
 62
     7
 66
     1
 10
0.0
 20
0.0
 30
0.0
  0
VERTEX
  5
4AC
  8
0
  6
CONTINUOUS
 62
     7
 10
23.9768165222
 20
227.0157228452
 30
0.0
  0
VERTEX
  5
4AD
  8
0
  6
CONTINUOUS
 62
     7
 10
23.9960330597
 20
227.0349393827
 30
0.0
  0
VERTEX
  5
4AE
  8
0
  6
CONTINUOUS
 62
     7
 10
24.0529435745
 20
227.0918439371
 30
0.0
  0
VERTEX
  5
4AF
  8
0
  6
CONTINUOUS
 62
     7
 10
24.1453546158
 20
227.1842549783
 30
0.0
  0
VERTEX
  5
4B0
  8
0
  6
CONTINUOUS
 62
     7
 10
24.2697137466
 20
227.3086141092
 30
0.0
  0
VERTEX
  5
4B1
  8
0
  6
CONTINUOUS
 62
     7
 10
24.4212525955
 20
227.4601529581
 30
0.0
  0
VERTEX
  5
4B2
  8
0
  6
CONTINUOUS
 62
     7
 10
24.5941299072
 20
227.6330362302
 30
0.0
  0
VERTEX
  5
4B3
  8
0
  6
CONTINUOUS
 62
     7
 10
24.7817295662
 20
227.8206299287
 30
0.0
  0
VERTEX
  5
4B4
  8
0
  6
CONTINUOUS
 62
     7
 10
24.9768155685
 20
228.0157218915
 30
0.0
  0
SEQEND
  5
8B9
  8
0
  6
CONTINUOUS
 62
     7
  0
LINE
  5
6F
  8
0
  6
CONTINUOUS
 62
     7
 10
23.9768165222
 20
227.0157228452
 30
0.0
 11
-14.223192347
 21
227.0157228452
 31
0.0
  0
LINE
  5
70
  8
0
  6
CONTINUOUS
 62
     7
 10
23.9768165222
 20
163.0157218543
 30
0.0
 11
23.9768165222
 21
227.0157228452
 31
0.0
  0
LINE
  5
71
  8
0
  6
CONTINUOUS
 62
     7
 10
33.9768189064
 20
227.0157228452
 30
0.0
 11
33.9768189064
 21
163.0157218543
 31
0.0
  0
ARC
  5
72
  8
0
  6
CONTINUOUS
 62
     7
 10
432.1768189064
 20
236.6157218439
 30
0.0
 40
0.3999999999999773
 50
0.0
 51
90.0
  0
LINE
  5
73
  8
0
  6
CONTINUOUS
 62
     7
 10
432.5768250099
 20
236.6157244188
 30
0.0
 11
432.5768250099
 21
236.0157202226
 31
0.0
  0
LINE
  5
74
  8
0
  6
CONTINUOUS
 62
     7
 10
-14.6231871971
 20
227.4157236558
 30
0.0
 11
-14.6231871971
 21
228.0157218915
 31
0.0
  0
ARC
  5
75
  8
0
  6
CONTINUOUS
 62
     7
 10
-14.2231810936
 20
227.4157218439
 30
0.0
 40
0.4000000000000057
 50
180.0
 51
270.0
  0
LINE
  5
76
  8
0
  6
CONTINUOUS
 62
     7
 10
383.9768189064
 20
163.0157218543
 30
0.0
 11
383.9768189064
 21
227.0157228452
 31
0.0
  0
POLYLINE
  5
77
  8
0
  6
CONTINUOUS
 62
     7
 66
     1
 10
0.0
 20
0.0
 30
0.0
  0
VERTEX
  5
4B5
  8
0
  6
CONTINUOUS
 62
     7
 10
393.9768212906
 20
227.0157228452
 30
0.0
  0
VERTEX
  5
4B6
  8
0
  6
CONTINUOUS
 62
     7
 10
393.9576047531
 20
227.0349393827
 30
0.0
  0
VERTEX
  5
4B7
  8
0
  6
CONTINUOUS
 62
     7
 10
393.9006942383
 20
227.0918439371
 30
0.0
  0
VERTEX
  5
4B8
  8
0
  6
CONTINUOUS
 62
     7
 10
393.808283197
 20
227.1842549783
 30
0.0
  0
VERTEX
  5
4B9
  8
0
  6
CONTINUOUS
 62
     7
 10
393.6839240662
 20
227.3086141092
 30
0.0
  0
VERTEX
  5
4BA
  8
0
  6
CONTINUOUS
 62
     7
 10
393.5323852173
 20
227.4601529581
 30
0.0
  0
VERTEX
  5
4BB
  8
0
  6
CONTINUOUS
 62
     7
 10
393.3595079056
 20
227.6330362302
 30
0.0
  0
VERTEX
  5
4BC
  8
0
  6
CONTINUOUS
 62
     7
 10
393.1719082466
 20
227.8206299287
 30
0.0
  0
VERTEX
  5
4BD
  8
0
  6
CONTINUOUS
 62
     7
 10
392.9768222443
 20
228.0157218915
 30
0.0
  0
SEQEND
  5
8B8
  8
0
  6
CONTINUOUS
 62
     7
  0
LINE
  5
78
  8
0
  6
CONTINUOUS
 62
     7
 10
432.1768301598
 20
227.0157228452
 30
0.0
 11
393.9768212906
 21
227.0157228452
 31
0.0
  0
LINE
  5
79
  8
0
  6
CONTINUOUS
 62
     7
 10
393.9768212906
 20
227.0157228452
 30
0.0
 11
393.9768212906
 21
163.0157218543
 31
0.0
  0
LINE
  5
7A
  8
0
  6
CONTINUOUS
 62
     7
 10
-14.223192347
 20
237.0157192689
 30
0.0
 11
-13.5231715569
 21
237.0157192689
 31
0.0
  0
LINE
  5
7B
  8
0
  6
CONTINUOUS
 62
     7
 10
-3.5231810936
 20
237.0157192689
 30
0.0
 11
61.4768165222
 21
237.0157192689
 31
0.0
  0
LINE
  5
7C
  8
0
  6
CONTINUOUS
 62
     7
 10
71.4768189064
 20
237.0157192689
 30
0.0
 11
106.4768212906
 21
237.0157192689
 31
0.0
  0
LINE
  5
7D
  8
0
  6
CONTINUOUS
 62
     7
 10
116.4768177143
 20
237.0157192689
 30
0.0
 11
181.4768183104
 21
237.0157192689
 31
0.0
  0
LINE
  5
7E
  8
0
  6
CONTINUOUS
 62
     7
 10
191.4768192044
 20
237.0157192689
 30
0.0
 11
226.4768186084
 21
237.0157192689
 31
0.0
  0
LINE
  5
7F
  8
0
  6
CONTINUOUS
 62
     7
 10
236.4768195025
 20
237.0157192689
 30
0.0
 11
301.4768200985
 21
237.0157192689
 31
0.0
  0
LINE
  5
80
  8
0
  6
CONTINUOUS
 62
     7
 10
311.4768165222
 20
237.0157192689
 30
0.0
 11
346.4768189064
 21
237.0157192689
 31
0.0
  0
LINE
  5
81
  8
0
  6
CONTINUOUS
 62
     7
 10
356.4768212906
 20
237.0157192689
 30
0.0
 11
421.4768189064
 21
237.0157192689
 31
0.0
  0
LINE
  5
82
  8
0
  6
CONTINUOUS
 62
     7
 10
431.4768093697
 20
237.0157192689
 30
0.0
 11
432.1768301598
 21
237.0157192689
 31
0.0
  0
LINE
  5
83
  8
0
  6
CONTINUOUS
 62
     7
 10
-14.6231871971
 20
228.0157218915
 30
0.0
 11
-14.6231871971
 21
236.0157202226
 31
0.0
  0
LINE
  5
84
  8
0
  6
CONTINUOUS
 62
     7
 10
432.5768250099
 20
236.0157202226
 30
0.0
 11
432.5768250099
 21
228.0157218915
 31
0.0
  0
LINE
  5
85
  8
0
  6
CONTINUOUS
 62
     7
 10
432.5768250099
 20
228.0157218915
 30
0.0
 11
432.5768250099
 21
227.4157236558
 31
0.0
  0
ARC
  5
86
  8
0
  6
CONTINUOUS
 62
     7
 10
432.1768189064
 20
227.4157218439
 30
0.0
 40
0.4000000000000057
 50
270.0
 51
0.0
  0
POLYLINE
  5
87
  8
0
  6
CONTINUOUS
 62
     7
 66
     1
 10
0.0
 20
0.0
 30
0.0
  0
VERTEX
  5
4BE
  8
0
  6
CONTINUOUS
 62
     7
 10
306.5768915287
 20
253.3464203817
 30
0.0
  0
VERTEX
  5
4BF
  8
0
  6
CONTINUOUS
 62
     7
 10
306.4890164009
 20
253.0923317415
 30
0.0
  0
VERTEX
  5
4C0
  8
0
  6
CONTINUOUS
 62
     7
 10
306.2237042061
 20
252.7373205167
 30
0.0
  0
VERTEX
  5
4C1
  8
0
  6
CONTINUOUS
 62
     7
 10
305.8147030941
 20
252.3055742723
 30
0.0
  0
VERTEX
  5
4C2
  8
0
  6
CONTINUOUS
 62
     7
 10
305.2562850586
 20
251.8036375982
 30
0.0
  0
VERTEX
  5
4C3
  8
0
  6
CONTINUOUS
 62
     7
 10
304.5203286282
 20
251.2481580717
 30
0.0
  0
VERTEX
  5
4C4
  8
0
  6
CONTINUOUS
 62
     7
 10
303.6182480923
 20
250.6999562723
 30
0.0
  0
VERTEX
  5
4C5
  8
0
  6
CONTINUOUS
 62
     7
 10
302.7518707386
 20
250.2921293718
 30
0.0
  0
VERTEX
  5
4C6
  8
0
  6
CONTINUOUS
 62
     7
 10
301.768191444
 20
249.9546478731
 30
0.0
  0
VERTEX
  5
4C7
  8
0
  6
CONTINUOUS
 62
     7
 10
301.1431294552
 20
249.8043786031
 30
0.0
  0
VERTEX
  5
4C8
  8
0
  6
CONTINUOUS
 62
     7
 10
300.4893201462
 20
249.6979247076
 30
0.0
  0
SEQEND
  5
8B7
  8
0
  6
CONTINUOUS
 62
     7
  0
POLYLINE
  5
88
  8
0
  6
CONTINUOUS
 62
     7
 66
     1
 10
0.0
 20
0.0
 30
0.0
  0
VERTEX
  5
4C9
  8
0
  6
CONTINUOUS
 62
     7
 10
306.5768915287
 20
253.3464203817
 30
0.0
  0
VERTEX
  5
4CA
  8
0
  6
CONTINUOUS
 62
     7
 10
306.5768855682
 20
253.4012089712
 30
0.0
  0
VERTEX
  5
4CB
  8
0
  6
CONTINUOUS
 62
     7
 10
306.5766709915
 20
253.6939035398
 30
0.0
  0
VERTEX
  5
4CC
  8
0
  6
CONTINUOUS
 62
     7
 10
306.5761941544
 20
253.816611622
 30
0.0
  0
VERTEX
  5
4CD
  8
0
  6
CONTINUOUS
 62
     7
 10
306.5758484474
 20
253.8302432043
 30
0.0
  0
VERTEX
  5
4CE
  8
0
  6
CONTINUOUS
 62
     7
 10
306.5760928265
 20
253.8173864824
 30
0.0
  0
SEQEND
  5
8B6
  8
0
  6
CONTINUOUS
 62
     7
  0
POLYLINE
  5
89
  8
0
  6
CONTINUOUS
 62
     7
 66
     1
 10
0.0
 20
0.0
 30
0.0
  0
VERTEX
  5
4CF
  8
0
  6
CONTINUOUS
 62
     7
 10
306.5768200031
 20
254.1138182622
 30
0.0
  0
VERTEX
  5
4D0
  8
0
  6
CONTINUOUS
 62
     7
 10
306.5621095768
 20
254.0660570604
 30
0.0
  0
VERTEX
  5
4D1
  8
0
  6
CONTINUOUS
 62
     7
 10
306.5768200031
 20
253.9392600996
 30
0.0
  0
SEQEND
  5
8B5
  8
0
  6
CONTINUOUS
 62
     7
  0
POLYLINE
  5
8A
  8
0
  6
CONTINUOUS
 62
     7
 66
     1
 10
0.0
 20
0.0
 30
0.0
  0
VERTEX
  5
4D2
  8
0
  6
CONTINUOUS
 62
     7
 10
231.3768151275
 20
253.9392600996
 30
0.0
  0
VERTEX
  5
4D3
  8
0
  6
CONTINUOUS
 62
     7
 10
231.391528534
 20
254.0660570604
 30
0.0
  0
VERTEX
  5
4D4
  8
0
  6
CONTINUOUS
 62
     7
 10
231.3768195978
 20
254.1138182622
 30
0.0
  0
SEQEND
  5
8B4
  8
0
  6
CONTINUOUS
 62
     7
  0
POLYLINE
  5
8B
  8
0
  6
CONTINUOUS
 62
     7
 66
     1
 10
0.0
 20
0.0
 30
0.0
  0
VERTEX
  5
4D5
  8
0
  6
CONTINUOUS
 62
     7
 10
231.3767480722
 20
253.3465991956
 30
0.0
  0
VERTEX
  5
4D6
  8
0
  6
CONTINUOUS
 62
     7
 10
231.3767480722
 20
253.3512960416
 30
0.0
  0
VERTEX
  5
4D7
  8
0
  6
CONTINUOUS
 62
     7
 10
231.3769179455
 20
253.669793461
 30
0.0
  0
VERTEX
  5
4D8
  8
0
  6
CONTINUOUS
 62
     7
 10
231.3773828617
 20
253.8090358717
 30
0.0
  0
VERTEX
  5
4D9
  8
0
  6
CONTINUOUS
 62
     7
 10
231.3777688018
 20
253.8324008924
 30
0.0
  0
VERTEX
  5
4DA
  8
0
  6
CONTINUOUS
 62
     7
 10
231.3777166477
 20
253.8149903757
 30
0.0
  0
SEQEND
  5
8B3
  8
0
  6
CONTINUOUS
 62
     7
  0
POLYLINE
  5
8C
  8
0
  6
CONTINUOUS
 62
     7
 66
     1
 10
0.0
 20
0.0
 30
0.0
  0
VERTEX
  5
4DB
  8
0
  6
CONTINUOUS
 62
     7
 10
237.4643194548
 20
249.6979247076
 30
0.0
  0
VERTEX
  5
4DC
  8
0
  6
CONTINUOUS
 62
     7
 10
236.4502715937
 20
249.8850892526
 30
0.0
  0
VERTEX
  5
4DD
  8
0
  6
CONTINUOUS
 62
     7
 10
235.4649650923
 20
250.1892696363
 30
0.0
  0
VERTEX
  5
4DE
  8
0
  6
CONTINUOUS
 62
     7
 10
234.5961260668
 20
250.5656610471
 30
0.0
  0
VERTEX
  5
4DF
  8
0
  6
CONTINUOUS
 62
     7
 10
233.8028553
 20
251.007230137
 30
0.0
  0
VERTEX
  5
4E0
  8
0
  6
CONTINUOUS
 62
     7
 10
233.045383083
 20
251.5275965673
 30
0.0
  0
VERTEX
  5
4E1
  8
0
  6
CONTINUOUS
 62
     7
 10
232.4040892592
 20
252.0571540338
 30
0.0
  0
VERTEX
  5
4E2
  8
0
  6
CONTINUOUS
 62
     7
 10
231.857852923
 20
252.5941620809
 30
0.0
  0
VERTEX
  5
4E3
  8
0
  6
CONTINUOUS
 62
     7
 10
231.6497105232
 20
252.8327833158
 30
0.0
  0
VERTEX
  5
4E4
  8
0
  6
CONTINUOUS
 62
     7
 10
231.4975964895
 20
253.0388127309
 30
0.0
  0
VERTEX
  5
4E5
  8
0
  6
CONTINUOUS
 62
     7
 10
231.3767480722
 20
253.3465991956
 30
0.0
  0
SEQEND
  5
8B2
  8
0
  6
CONTINUOUS
 62
     7
  0
POLYLINE
  5
8D
  8
0
  6
CONTINUOUS
 62
     7
 66
     1
 10
0.0
 20
0.0
 30
0.0
  0
VERTEX
  5
4E6
  8
0
  6
CONTINUOUS
 62
     7
 10
300.4893201462
 20
249.6979247076
 30
0.0
  0
VERTEX
  5
4E7
  8
0
  6
CONTINUOUS
 62
     7
 10
293.3999913803
 20
248.8970111352
 30
0.0
  0
VERTEX
  5
4E8
  8
0
  6
CONTINUOUS
 62
     7
 10
286.2829226128
 20
248.2695709211
 30
0.0
  0
VERTEX
  5
4E9
  8
0
  6
CONTINUOUS
 62
     7
 10
279.110016214
 20
247.8430043203
 30
0.0
  0
VERTEX
  5
4EA
  8
0
  6
CONTINUOUS
 62
     7
 10
271.9230908028
 20
247.6357887727
 30
0.0
  0
VERTEX
  5
4EB
  8
0
  6
CONTINUOUS
 62
     7
 10
266.8600576988
 20
247.626591776
 30
0.0
  0
VERTEX
  5
4EC
  8
0
  6
CONTINUOUS
 62
     7
 10
261.7985325924
 20
247.7302621347
 30
0.0
  0
VERTEX
  5
4ED
  8
0
  6
CONTINUOUS
 62
     7
 10
256.7278641335
 20
247.9461978418
 30
0.0
  0
VERTEX
  5
4EE
  8
0
  6
CONTINUOUS
 62
     7
 10
251.6655880085
 20
248.2699523908
 30
0.0
  0
VERTEX
  5
4EF
  8
0
  6
CONTINUOUS
 62
     7
 10
244.5547062031
 20
248.8965044958
 30
0.0
  0
VERTEX
  5
4F0
  8
0
  6
CONTINUOUS
 62
     7
 10
237.4643194548
 20
249.6979247076
 30
0.0
  0
SEQEND
  5
8B1
  8
0
  6
CONTINUOUS
 62
     7
  0
POLYLINE
  5
8E
  8
0
  6
CONTINUOUS
 62
     7
 66
     1
 10
0.0
 20
0.0
 30
0.0
  0
VERTEX
  5
4F1
  8
0
  6
CONTINUOUS
 62
     7
 10
237.6442181936
 20
255.0304959756
 30
0.0
  0
VERTEX
  5
4F2
  8
0
  6
CONTINUOUS
 62
     7
 10
236.6377460829
 20
255.248142336
 30
0.0
  0
VERTEX
  5
4F3
  8
0
  6
CONTINUOUS
 62
     7
 10
235.7131498924
 20
255.4379533273
 30
0.0
  0
VERTEX
  5
4F4
  8
0
  6
CONTINUOUS
 62
     7
 10
234.9456596247
 20
255.575926159
 30
0.0
  0
VERTEX
  5
4F5
  8
0
  6
CONTINUOUS
 62
     7
 10
234.3101787439
 20
255.6598494989
 30
0.0
  0
VERTEX
  5
4F6
  8
0
  6
CONTINUOUS
 62
     7
 10
234.0084481112
 20
255.6806038362
 30
0.0
  0
VERTEX
  5
4F7
  8
0
  6
CONTINUOUS
 62
     7
 10
233.7704571954
 20
255.6791792852
 30
0.0
  0
SEQEND
  5
8B0
  8
0
  6
CONTINUOUS
 62
     7
  0
ARC
  5
8F
  8
0
  6
CONTINUOUS
 62
     7
 10
268.8606536327
 20
394.2635485584
 30
0.0
 40
142.6895538329487
 50
257.3631010656
 51
260.3830639281
  0
ARC
  5
90
  8
0
  6
CONTINUOUS
 62
     7
 10
268.3748865062
 20
397.894133029
 30
0.0
 40
146.3893210294648
 50
279.6013645076
 51
282.6002782923
  0
POLYLINE
  5
91
  8
0
  6
CONTINUOUS
 62
     7
 66
     1
 10
0.0
 20
0.0
 30
0.0
  0
VERTEX
  5
4F8
  8
0
  6
CONTINUOUS
 62
     7
 10
304.1831809155
 20
255.6791792852
 30
0.0
  0
VERTEX
  5
4F9
  8
0
  6
CONTINUOUS
 62
     7
 10
303.7640946976
 20
255.6702683908
 30
0.0
  0
VERTEX
  5
4FA
  8
0
  6
CONTINUOUS
 62
     7
 10
303.1544643513
 20
255.5985520822
 30
0.0
  0
VERTEX
  5
4FB
  8
0
  6
CONTINUOUS
 62
     7
 10
302.4032193295
 20
255.4692934495
 30
0.0
  0
VERTEX
  5
4FC
  8
0
  6
CONTINUOUS
 62
     7
 10
301.4858442417
 20
255.2841018182
 30
0.0
  0
VERTEX
  5
4FD
  8
0
  6
CONTINUOUS
 62
     7
 10
300.3094214073
 20
255.0304959756
 30
0.0
  0
SEQEND
  5
8AF
  8
0
  6
CONTINUOUS
 62
     7
  0
POLYLINE
  5
92
  8
0
  6
CONTINUOUS
 62
     7
 66
     1
 10
0.0
 20
0.0
 30
0.0
  0
VERTEX
  5
4FE
  8
0
  6
CONTINUOUS
 62
     7
 10
304.1831630341
 20
255.6792567712
 30
0.0
  0
VERTEX
  5
4FF
  8
0
  6
CONTINUOUS
 62
     7
 10
305.1002281776
 20
255.6244443399
 30
0.0
  0
VERTEX
  5
500
  8
0
  6
CONTINUOUS
 62
     7
 10
305.7014006248
 20
255.5699060899
 30
0.0
  0
VERTEX
  5
501
  8
0
  6
CONTINUOUS
 62
     7
 10
306.0589271656
 20
255.5141757471
 30
0.0
  0
VERTEX
  5
502
  8
0
  6
CONTINUOUS
 62
     7
 10
306.2736827007
 20
255.4575632555
 30
0.0
  0
VERTEX
  5
503
  8
0
  6
CONTINUOUS
 62
     7
 10
306.355430471
 20
255.3991328222
 30
0.0
  0
VERTEX
  5
504
  8
0
  6
CONTINUOUS
 62
     7
 10
306.3522654644
 20
255.3415785772
 30
0.0
  0
VERTEX
  5
505
  8
0
  6
CONTINUOUS
 62
     7
 10
306.3251632324
 20
255.2887271387
 30
0.0
  0
VERTEX
  5
506
  8
0
  6
CONTINUOUS
 62
     7
 10
306.3230055443
 20
255.2418659669
 30
0.0
  0
VERTEX
  5
507
  8
0
  6
CONTINUOUS
 62
     7
 10
306.369944202
 20
255.1335702878
 30
0.0
  0
VERTEX
  5
508
  8
0
  6
CONTINUOUS
 62
     7
 10
306.3791769615
 20
255.0920139295
 30
0.0
  0
SEQEND
  5
8AE
  8
0
  6
CONTINUOUS
 62
     7
  0
ARC
  5
93
  8
0
  6
CONTINUOUS
 62
     7
 10
301.5288135611
 20
254.262799064
 30
0.0
 40
4.949505315857021
 50
3.5875281046
 51
8.4264629008
  0
POLYLINE
  5
94
  8
0
  6
CONTINUOUS
 62
     7
 66
     1
 10
0.0
 20
0.0
 30
0.0
  0
VERTEX
  5
509
  8
0
  6
CONTINUOUS
 62
     7
 10
300.3799813858
 20
251.1946748239
 30
0.0
  0
VERTEX
  5
50A
  8
0
  6
CONTINUOUS
 62
     7
 10
301.4036792389
 20
251.3736020071
 30
0.0
  0
VERTEX
  5
50B
  8
0
  6
CONTINUOUS
 62
     7
 10
302.3996549717
 20
251.6643832666
 30
0.0
  0
VERTEX
  5
50C
  8
0
  6
CONTINUOUS
 62
     7
 10
303.2799082867
 20
252.0233283979
 30
0.0
  0
VERTEX
  5
50D
  8
0
  6
CONTINUOUS
 62
     7
 10
304.0845411888
 20
252.4421344739
 30
0.0
  0
VERTEX
  5
50E
  8
0
  6
CONTINUOUS
 62
     7
 10
304.8442619911
 20
252.9258380872
 30
0.0
  0
VERTEX
  5
50F
  8
0
  6
CONTINUOUS
 62
     7
 10
305.4856616131
 20
253.4124146444
 30
0.0
  0
VERTEX
  5
510
  8
0
  6
CONTINUOUS
 62
     7
 10
306.0133832565
 20
253.8857112867
 30
0.0
  0
VERTEX
  5
511
  8
0
  6
CONTINUOUS
 62
     7
 10
306.3566166035
 20
254.2788396818
 30
0.0
  0
VERTEX
  5
512
  8
0
  6
CONTINUOUS
 62
     7
 10
306.4446943871
 20
254.4395040018
 30
0.0
  0
VERTEX
  5
513
  8
0
  6
CONTINUOUS
 62
     7
 10
306.4686196915
 20
254.5724998456
 30
0.0
  0
SEQEND
  5
8AD
  8
0
  6
CONTINUOUS
 62
     7
  0
POLYLINE
  5
95
  8
0
  6
CONTINUOUS
 62
     7
 66
     1
 10
0.0
 20
0.0
 30
0.0
  0
VERTEX
  5
514
  8
0
  6
CONTINUOUS
 62
     7
 10
300.3799813858
 20
251.1946748239
 30
0.0
  0
VERTEX
  5
515
  8
0
  6
CONTINUOUS
 62
     7
 10
295.0291591755
 20
250.6080816728
 30
0.0
  0
VERTEX
  5
516
  8
0
  6
CONTINUOUS
 62
     7
 10
289.6630006901
 20
250.1100789053
 30
0.0
  0
VERTEX
  5
517
  8
0
  6
CONTINUOUS
 62
     7
 10
284.2707472912
 20
249.7129271966
 30
0.0
  0
VERTEX
  5
518
  8
0
  6
CONTINUOUS
 62
     7
 10
278.8676518074
 20
249.427945469
 30
0.0
  0
VERTEX
  5
519
  8
0
  6
CONTINUOUS
 62
     7
 10
272.9661601654
 20
249.254281376
 30
0.0
  0
VERTEX
  5
51A
  8
0
  6
CONTINUOUS
 62
     7
 10
267.0610147587
 20
249.227948044
 30
0.0
  0
VERTEX
  5
51B
  8
0
  6
CONTINUOUS
 62
     7
 10
261.1358481518
 20
249.3512223703
 30
0.0
  0
VERTEX
  5
51C
  8
0
  6
CONTINUOUS
 62
     7
 10
255.2178042999
 20
249.6199916345
 30
0.0
  0
VERTEX
  5
51D
  8
0
  6
CONTINUOUS
 62
     7
 10
250.7965195051
 20
249.9120067102
 30
0.0
  0
VERTEX
  5
51E
  8
0
  6
CONTINUOUS
 62
     7
 10
246.3835763803
 20
250.2759049875
 30
0.0
  0
VERTEX
  5
51F
  8
0
  6
CONTINUOUS
 62
     7
 10
241.973333346
 20
250.706125353
 30
0.0
  0
VERTEX
  5
520
  8
0
  6
CONTINUOUS
 62
     7
 10
237.5736552349
 20
251.1946748239
 30
0.0
  0
SEQEND
  5
8AC
  8
0
  6
CONTINUOUS
 62
     7
  0
POLYLINE
  5
96
  8
0
  6
CONTINUOUS
 62
     7
 66
     1
 10
0.0
 20
0.0
 30
0.0
  0
VERTEX
  5
521
  8
0
  6
CONTINUOUS
 62
     7
 10
231.4850154391
 20
254.5724998456
 30
0.0
  0
VERTEX
  5
522
  8
0
  6
CONTINUOUS
 62
     7
 10
231.5593573323
 20
254.3378423196
 30
0.0
  0
VERTEX
  5
523
  8
0
  6
CONTINUOUS
 62
     7
 10
231.8166005484
 20
254.0124367219
 30
0.0
  0
VERTEX
  5
524
  8
0
  6
CONTINUOUS
 62
     7
 10
232.2263526789
 20
253.6188076478
 30
0.0
  0
VERTEX
  5
525
  8
0
  6
CONTINUOUS
 62
     7
 10
232.7941137424
 20
253.1549881441
 30
0.0
  0
VERTEX
  5
526
  8
0
  6
CONTINUOUS
 62
     7
 10
233.526838111
 20
252.6487480146
 30
0.0
  0
VERTEX
  5
527
  8
0
  6
CONTINUOUS
 62
     7
 10
234.4230311981
 20
252.1441470129
 30
0.0
  0
VERTEX
  5
528
  8
0
  6
CONTINUOUS
 62
     7
 10
235.3031474224
 20
251.756603573
 30
0.0
  0
VERTEX
  5
529
  8
0
  6
CONTINUOUS
 62
     7
 10
236.3008814922
 20
251.4352808935
 30
0.0
  0
VERTEX
  5
52A
  8
0
  6
CONTINUOUS
 62
     7
 10
236.9236904255
 20
251.2945126039
 30
0.0
  0
VERTEX
  5
52B
  8
0
  6
CONTINUOUS
 62
     7
 10
237.5736552349
 20
251.1946748239
 30
0.0
  0
SEQEND
  5
8AB
  8
0
  6
CONTINUOUS
 62
     7
  0
POLYLINE
  5
97
  8
0
  6
CONTINUOUS
 62
     7
 66
     1
 10
0.0
 20
0.0
 30
0.0
  0
VERTEX
  5
52C
  8
0
  6
CONTINUOUS
 62
     7
 10
231.4850154391
 20
254.5725058061
 30
0.0
  0
VERTEX
  5
52D
  8
0
  6
CONTINUOUS
 62
     7
 10
231.5133336059
 20
254.8688422185
 30
0.0
  0
VERTEX
  5
52E
  8
0
  6
CONTINUOUS
 62
     7
 10
231.5291601292
 20
254.993517254
 30
0.0
  0
SEQEND
  5
8AA
  8
0
  6
CONTINUOUS
 62
     7
  0
POLYLINE
  5
98
  8
0
  6
CONTINUOUS
 62
     7
 66
     1
 10
0.0
 20
0.0
 30
0.0
  0
VERTEX
  5
52F
  8
0
  6
CONTINUOUS
 62
     7
 10
231.5745296947
 20
255.09150729
 30
0.0
  0
VERTEX
  5
530
  8
0
  6
CONTINUOUS
 62
     7
 10
231.5846401325
 20
255.136151169
 30
0.0
  0
VERTEX
  5
531
  8
0
  6
CONTINUOUS
 62
     7
 10
231.6306310764
 20
255.2418659669
 30
0.0
  0
VERTEX
  5
532
  8
0
  6
CONTINUOUS
 62
     7
 10
231.6284733883
 20
255.2887271387
 30
0.0
  0
VERTEX
  5
533
  8
0
  6
CONTINUOUS
 62
     7
 10
231.6013726464
 20
255.3415785772
 30
0.0
  0
VERTEX
  5
534
  8
0
  6
CONTINUOUS
 62
     7
 10
231.5982076398
 20
255.3991328222
 30
0.0
  0
VERTEX
  5
535
  8
0
  6
CONTINUOUS
 62
     7
 10
231.67995392
 20
255.4575632555
 30
0.0
  0
VERTEX
  5
536
  8
0
  6
CONTINUOUS
 62
     7
 10
231.8947124353
 20
255.5141757471
 30
0.0
  0
VERTEX
  5
537
  8
0
  6
CONTINUOUS
 62
     7
 10
232.2522345058
 20
255.5699060899
 30
0.0
  0
VERTEX
  5
538
  8
0
  6
CONTINUOUS
 62
     7
 10
232.8534084431
 20
255.6244443399
 30
0.0
  0
VERTEX
  5
539
  8
0
  6
CONTINUOUS
 62
     7
 10
233.7704750768
 20
255.6792567712
 30
0.0
  0
SEQEND
  5
8A9
  8
0
  6
CONTINUOUS
 62
     7
  0
LINE
  5
99
  8
0
  6
CONTINUOUS
 62
     7
 10
306.5768200031
 20
254.1143070203
 30
0.0
 11
306.5768200031
 21
254.4200073225
 31
0.0
  0
LINE
  5
9A
  8
0
  6
CONTINUOUS
 62
     7
 10
231.3768195978
 20
253.9392600996
 30
0.0
 11
231.3768195978
 21
253.7647973043
 31
0.0
  0
LINE
  5
9B
  8
0
  6
CONTINUOUS
 62
     7
 10
231.3768195978
 20
254.4098149282
 30
0.0
 11
231.3768195978
 21
254.1143070203
 31
0.0
  0
POLYLINE
  5
9C
  8
0
  6
CONTINUOUS
 62
     7
 66
     1
 10
0.0
 20
0.0
 30
0.0
  0
VERTEX
  5
53A
  8
0
  6
CONTINUOUS
 62
     7
 10
66.5768879524
 20
253.3464203817
 30
0.0
  0
VERTEX
  5
53B
  8
0
  6
CONTINUOUS
 62
     7
 10
66.4890187851
 20
253.0923317415
 30
0.0
  0
VERTEX
  5
53C
  8
0
  6
CONTINUOUS
 62
     7
 10
66.2237065903
 20
252.7373205167
 30
0.0
  0
VERTEX
  5
53D
  8
0
  6
CONTINUOUS
 62
     7
 10
65.8146995178
 20
252.3055742723
 30
0.0
  0
VERTEX
  5
53E
  8
0
  6
CONTINUOUS
 62
     7
 10
65.2562874428
 20
251.8036375982
 30
0.0
  0
VERTEX
  5
53F
  8
0
  6
CONTINUOUS
 62
     7
 10
64.5203250519
 20
251.2481580717
 30
0.0
  0
VERTEX
  5
540
  8
0
  6
CONTINUOUS
 62
     7
 10
63.618244516
 20
250.6999562723
 30
0.0
  0
VERTEX
  5
541
  8
0
  6
CONTINUOUS
 62
     7
 10
62.7518671623
 20
250.2921293718
 30
0.0
  0
VERTEX
  5
542
  8
0
  6
CONTINUOUS
 62
     7
 10
61.7681997887
 20
249.9546478731
 30
0.0
  0
VERTEX
  5
543
  8
0
  6
CONTINUOUS
 62
     7
 10
61.1431258789
 20
249.8043786031
 30
0.0
  0
VERTEX
  5
544
  8
0
  6
CONTINUOUS
 62
     7
 10
60.4893225304
 20
249.6979247076
 30
0.0
  0
SEQEND
  5
8A8
  8
0
  6
CONTINUOUS
 62
     7
  0
POLYLINE
  5
9D
  8
0
  6
CONTINUOUS
 62
     7
 66
     1
 10
0.0
 20
0.0
 30
0.0
  0
VERTEX
  5
545
  8
0
  6
CONTINUOUS
 62
     7
 10
66.5768879524
 20
253.3464203817
 30
0.0
  0
VERTEX
  5
546
  8
0
  6
CONTINUOUS
 62
     7
 10
66.5768879524
 20
253.4012089712
 30
0.0
  0
VERTEX
  5
547
  8
0
  6
CONTINUOUS
 62
     7
 10
66.5766733757
 20
253.6939035398
 30
0.0
  0
VERTEX
  5
548
  8
0
  6
CONTINUOUS
 62
     7
 10
66.5761965385
 20
253.816611622
 30
0.0
  0
VERTEX
  5
549
  8
0
  6
CONTINUOUS
 62
     7
 10
66.5758508316
 20
253.8302432043
 30
0.0
  0
VERTEX
  5
54A
  8
0
  6
CONTINUOUS
 62
     7
 10
66.5760892502
 20
253.8173864824
 30
0.0
  0
SEQEND
  5
8A7
  8
0
  6
CONTINUOUS
 62
     7
  0
POLYLINE
  5
9E
  8
0
  6
CONTINUOUS
 62
     7
 66
     1
 10
0.0
 20
0.0
 30
0.0
  0
VERTEX
  5
54B
  8
0
  6
CONTINUOUS
 62
     7
 10
66.5768164269
 20
254.1138182622
 30
0.0
  0
VERTEX
  5
54C
  8
0
  6
CONTINUOUS
 62
     7
 10
66.5621060005
 20
254.0660570604
 30
0.0
  0
VERTEX
  5
54D
  8
0
  6
CONTINUOUS
 62
     7
 10
66.5768164269
 20
253.9392600996
 30
0.0
  0
SEQEND
  5
8A6
  8
0
  6
CONTINUOUS
 62
     7
  0
POLYLINE
  5
9F
  8
0
  6
CONTINUOUS
 62
     7
 66
     1
 10
0.0
 20
0.0
 30
0.0
  0
VERTEX
  5
54E
  8
0
  6
CONTINUOUS
 62
     7
 10
-8.6231929192
 20
253.9392600996
 30
0.0
  0
VERTEX
  5
54F
  8
0
  6
CONTINUOUS
 62
     7
 10
-8.6084824928
 20
254.0660570604
 30
0.0
  0
VERTEX
  5
550
  8
0
  6
CONTINUOUS
 62
     7
 10
-8.6231690773
 20
254.1138182622
 30
0.0
  0
SEQEND
  5
8A5
  8
0
  6
CONTINUOUS
 62
     7
  0
POLYLINE
  5
A0
  8
0
  6
CONTINUOUS
 62
     7
 66
     1
 10
0.0
 20
0.0
 30
0.0
  0
VERTEX
  5
551
  8
0
  6
CONTINUOUS
 62
     7
 10
-8.6232406029
 20
253.3465991956
 30
0.0
  0
VERTEX
  5
552
  8
0
  6
CONTINUOUS
 62
     7
 10
-8.6232406029
 20
253.3512960416
 30
0.0
  0
VERTEX
  5
553
  8
0
  6
CONTINUOUS
 62
     7
 10
-8.6230737099
 20
253.669793461
 30
0.0
  0
VERTEX
  5
554
  8
0
  6
CONTINUOUS
 62
     7
 10
-8.6226207146
 20
253.8090358717
 30
0.0
  0
VERTEX
  5
555
  8
0
  6
CONTINUOUS
 62
     7
 10
-8.6222392448
 20
253.8324008924
 30
0.0
  0
VERTEX
  5
556
  8
0
  6
CONTINUOUS
 62
     7
 10
-8.6222869286
 20
253.8149903757
 30
0.0
  0
SEQEND
  5
8A4
  8
0
  6
CONTINUOUS
 62
     7
  0
POLYLINE
  5
A1
  8
0
  6
CONTINUOUS
 62
     7
 66
     1
 10
0.0
 20
0.0
 30
0.0
  0
VERTEX
  5
557
  8
0
  6
CONTINUOUS
 62
     7
 10
-2.5356751808
 20
249.6979247076
 30
0.0
  0
VERTEX
  5
558
  8
0
  6
CONTINUOUS
 62
     7
 10
-3.5497409233
 20
249.8850892526
 30
0.0
  0
VERTEX
  5
559
  8
0
  6
CONTINUOUS
 62
     7
 10
-4.5350295433
 20
250.1892696363
 30
0.0
  0
VERTEX
  5
55A
  8
0
  6
CONTINUOUS
 62
     7
 10
-5.4038745293
 20
250.5656610471
 30
0.0
  0
VERTEX
  5
55B
  8
0
  6
CONTINUOUS
 62
     7
 10
-6.1971408257
 20
251.007230137
 30
0.0
  0
VERTEX
  5
55C
  8
0
  6
CONTINUOUS
 62
     7
 10
-6.9546204933
 20
251.5275965673
 30
0.0
  0
VERTEX
  5
55D
  8
0
  6
CONTINUOUS
 62
     7
 10
-7.5959187874
 20
252.0571540338
 30
0.0
  0
VERTEX
  5
55E
  8
0
  6
CONTINUOUS
 62
     7
 10
-8.1421357521
 20
252.5941620809
 30
0.0
  0
VERTEX
  5
55F
  8
0
  6
CONTINUOUS
 62
     7
 10
-8.3502990135
 20
252.8327833158
 30
0.0
  0
VERTEX
  5
560
  8
0
  6
CONTINUOUS
 62
     7
 10
-8.502410067
 20
253.0388127309
 30
0.0
  0
VERTEX
  5
561
  8
0
  6
CONTINUOUS
 62
     7
 10
-8.6232406029
 20
253.3465991956
 30
0.0
  0
SEQEND
  5
8A3
  8
0
  6
CONTINUOUS
 62
     7
  0
POLYLINE
  5
A2
  8
0
  6
CONTINUOUS
 62
     7
 66
     1
 10
0.0
 20
0.0
 30
0.0
  0
VERTEX
  5
562
  8
0
  6
CONTINUOUS
 62
     7
 10
60.4893225304
 20
249.6979247076
 30
0.0
  0
VERTEX
  5
563
  8
0
  6
CONTINUOUS
 62
     7
 10
53.3999937645
 20
248.8970111352
 30
0.0
  0
VERTEX
  5
564
  8
0
  6
CONTINUOUS
 62
     7
 10
46.2829249969
 20
248.2695709211
 30
0.0
  0
VERTEX
  5
565
  8
0
  6
CONTINUOUS
 62
     7
 10
39.1100185982
 20
247.8430043203
 30
0.0
  0
VERTEX
  5
566
  8
0
  6
CONTINUOUS
 62
     7
 10
31.923093187
 20
247.6357887727
 30
0.0
  0
VERTEX
  5
567
  8
0
  6
CONTINUOUS
 62
     7
 10
26.860060083
 20
247.626591776
 30
0.0
  0
VERTEX
  5
568
  8
0
  6
CONTINUOUS
 62
     7
 10
21.7985290161
 20
247.7302621347
 30
0.0
  0
VERTEX
  5
569
  8
0
  6
CONTINUOUS
 62
     7
 10
16.7278665176
 20
247.9461978418
 30
0.0
  0
VERTEX
  5
56A
  8
0
  6
CONTINUOUS
 62
     7
 10
11.6655844322
 20
248.2699523908
 30
0.0
  0
VERTEX
  5
56B
  8
0
  6
CONTINUOUS
 62
     7
 10
4.5547026268
 20
248.8965044958
 30
0.0
  0
VERTEX
  5
56C
  8
0
  6
CONTINUOUS
 62
     7
 10
-2.5356751808
 20
249.6979247076
 30
0.0
  0
SEQEND
  5
8A2
  8
0
  6
CONTINUOUS
 62
     7
  0
POLYLINE
  5
A3
  8
0
  6
CONTINUOUS
 62
     7
 66
     1
 10
0.0
 20
0.0
 30
0.0
  0
VERTEX
  5
56D
  8
0
  6
CONTINUOUS
 62
     7
 10
-2.3557883629
 20
255.0304959756
 30
0.0
  0
VERTEX
  5
56E
  8
0
  6
CONTINUOUS
 62
     7
 10
-3.3622485527
 20
255.248142336
 30
0.0
  0
VERTEX
  5
56F
  8
0
  6
CONTINUOUS
 62
     7
 10
-4.2868596443
 20
255.4379533273
 30
0.0
  0
VERTEX
  5
570
  8
0
  6
CONTINUOUS
 62
     7
 10
-5.0543290504
 20
255.575926159
 30
0.0
  0
VERTEX
  5
571
  8
0
  6
CONTINUOUS
 62
     7
 10
-5.689833773
 20
255.6598494989
 30
0.0
  0
VERTEX
  5
572
  8
0
  6
CONTINUOUS
 62
     7
 10
-5.9915524849
 20
255.6806038362
 30
0.0
  0
VERTEX
  5
573
  8
0
  6
CONTINUOUS
 62
     7
 10
-6.2295419106
 20
255.6791792852
 30
0.0
  0
SEQEND
  5
8A1
  8
0
  6
CONTINUOUS
 62
     7
  0
ARC
  5
A4
  8
0
  6
CONTINUOUS
 62
     7
 10
28.8611988987
 20
394.2664521508
 30
0.0
 40
142.6925078120653
 50
257.3631399214
 51
260.3830426002
  0
ARC
  5
A5
  8
0
  6
CONTINUOUS
 62
     7
 10
28.3748888904
 20
397.894133029
 30
0.0
 40
146.3893210294957
 50
279.6013645076
 51
282.6002782923
  0
POLYLINE
  5
A6
  8
0
  6
CONTINUOUS
 62
     7
 66
     1
 10
0.0
 20
0.0
 30
0.0
  0
VERTEX
  5
574
  8
0
  6
CONTINUOUS
 62
     7
 10
64.1831773392
 20
255.6791792852
 30
0.0
  0
VERTEX
  5
575
  8
0
  6
CONTINUOUS
 62
     7
 10
63.7640970818
 20
255.6702683908
 30
0.0
  0
VERTEX
  5
576
  8
0
  6
CONTINUOUS
 62
     7
 10
63.154460775
 20
255.5985520822
 30
0.0
  0
VERTEX
  5
577
  8
0
  6
CONTINUOUS
 62
     7
 10
62.4032157532
 20
255.4692934495
 30
0.0
  0
VERTEX
  5
578
  8
0
  6
CONTINUOUS
 62
     7
 10
61.4858406654
 20
255.2841018182
 30
0.0
  0
VERTEX
  5
579
  8
0
  6
CONTINUOUS
 62
     7
 10
60.3094237915
 20
255.0304959756
 30
0.0
  0
SEQEND
  5
8A0
  8
0
  6
CONTINUOUS
 62
     7
  0
POLYLINE
  5
A7
  8
0
  6
CONTINUOUS
 62
     7
 66
     1
 10
0.0
 20
0.0
 30
0.0
  0
VERTEX
  5
57A
  8
0
  6
CONTINUOUS
 62
     7
 10
64.1831654182
 20
255.6792567712
 30
0.0
  0
VERTEX
  5
57B
  8
0
  6
CONTINUOUS
 62
     7
 10
65.1002305618
 20
255.6244443399
 30
0.0
  0
VERTEX
  5
57C
  8
0
  6
CONTINUOUS
 62
     7
 10
65.701403009
 20
255.5699060899
 30
0.0
  0
VERTEX
  5
57D
  8
0
  6
CONTINUOUS
 62
     7
 10
66.0589235893
 20
255.5141757471
 30
0.0
  0
VERTEX
  5
57E
  8
0
  6
CONTINUOUS
 62
     7
 10
66.2736791245
 20
255.4575632555
 30
0.0
  0
VERTEX
  5
57F
  8
0
  6
CONTINUOUS
 62
     7
 10
66.3554328552
 20
255.3991328222
 30
0.0
  0
VERTEX
  5
580
  8
0
  6
CONTINUOUS
 62
     7
 10
66.3522618881
 20
255.3415785772
 30
0.0
  0
VERTEX
  5
581
  8
0
  6
CONTINUOUS
 62
     7
 10
66.3251656166
 20
255.2887271387
 30
0.0
  0
VERTEX
  5
582
  8
0
  6
CONTINUOUS
 62
     7
 10
66.3230079285
 20
255.2418659669
 30
0.0
  0
VERTEX
  5
583
  8
0
  6
CONTINUOUS
 62
     7
 10
66.3699406258
 20
255.1335702878
 30
0.0
  0
VERTEX
  5
584
  8
0
  6
CONTINUOUS
 62
     7
 10
66.3791793457
 20
255.0920139295
 30
0.0
  0
SEQEND
  5
89F
  8
0
  6
CONTINUOUS
 62
     7
  0
ARC
  5
A8
  8
0
  6
CONTINUOUS
 62
     7
 10
61.5327819911
 20
254.263146239
 30
0.0
 40
4.945525319101456
 50
3.5863889591
 51
8.429227524
  0
POLYLINE
  5
A9
  8
0
  6
CONTINUOUS
 62
     7
 66
     1
 10
0.0
 20
0.0
 30
0.0
  0
VERTEX
  5
585
  8
0
  6
CONTINUOUS
 62
     7
 10
60.37998377
 20
251.1946748239
 30
0.0
  0
VERTEX
  5
586
  8
0
  6
CONTINUOUS
 62
     7
 10
61.4036816231
 20
251.3736020071
 30
0.0
  0
VERTEX
  5
587
  8
0
  6
CONTINUOUS
 62
     7
 10
62.3996513954
 20
251.6643832666
 30
0.0
  0
VERTEX
  5
588
  8
0
  6
CONTINUOUS
 62
     7
 10
63.2799047104
 20
252.0233283979
 30
0.0
  0
VERTEX
  5
589
  8
0
  6
CONTINUOUS
 62
     7
 10
64.084543573
 20
252.4421344739
 30
0.0
  0
VERTEX
  5
58A
  8
0
  6
CONTINUOUS
 62
     7
 10
64.8442643753
 20
252.9258380872
 30
0.0
  0
VERTEX
  5
58B
  8
0
  6
CONTINUOUS
 62
     7
 10
65.4856580368
 20
253.4124146444
 30
0.0
  0
VERTEX
  5
58C
  8
0
  6
CONTINUOUS
 62
     7
 10
66.0133856407
 20
253.8857112867
 30
0.0
  0
VERTEX
  5
58D
  8
0
  6
CONTINUOUS
 62
     7
 10
66.3566130272
 20
254.2788396818
 30
0.0
  0
VERTEX
  5
58E
  8
0
  6
CONTINUOUS
 62
     7
 10
66.4446967712
 20
254.4395040018
 30
0.0
  0
VERTEX
  5
58F
  8
0
  6
CONTINUOUS
 62
     7
 10
66.4686220757
 20
254.5724998456
 30
0.0
  0
SEQEND
  5
89E
  8
0
  6
CONTINUOUS
 62
     7
  0
POLYLINE
  5
AA
  8
0
  6
CONTINUOUS
 62
     7
 66
     1
 10
0.0
 20
0.0
 30
0.0
  0
VERTEX
  5
590
  8
0
  6
CONTINUOUS
 62
     7
 10
60.37998377
 20
251.1946748239
 30
0.0
  0
VERTEX
  5
591
  8
0
  6
CONTINUOUS
 62
     7
 10
55.0291555992
 20
250.6080816728
 30
0.0
  0
VERTEX
  5
592
  8
0
  6
CONTINUOUS
 62
     7
 10
49.6629971138
 20
250.1100789053
 30
0.0
  0
VERTEX
  5
593
  8
0
  6
CONTINUOUS
 62
     7
 10
44.2707437149
 20
249.7129271966
 30
0.0
  0
VERTEX
  5
594
  8
0
  6
CONTINUOUS
 62
     7
 10
38.8676541916
 20
249.427945469
 30
0.0
  0
VERTEX
  5
595
  8
0
  6
CONTINUOUS
 62
     7
 10
32.9661625496
 20
249.254281376
 30
0.0
  0
VERTEX
  5
596
  8
0
  6
CONTINUOUS
 62
     7
 10
27.0610111824
 20
249.227948044
 30
0.0
  0
VERTEX
  5
597
  8
0
  6
CONTINUOUS
 62
     7
 10
21.1358445755
 20
249.3512223703
 30
0.0
  0
VERTEX
  5
598
  8
0
  6
CONTINUOUS
 62
     7
 10
15.2178066841
 20
249.6199916345
 30
0.0
  0
VERTEX
  5
599
  8
0
  6
CONTINUOUS
 62
     7
 10
10.7965129486
 20
249.9120067102
 30
0.0
  0
VERTEX
  5
59A
  8
0
  6
CONTINUOUS
 62
     7
 10
6.3835638634
 20
250.2759049875
 30
0.0
  0
VERTEX
  5
59B
  8
0
  6
CONTINUOUS
 62
     7
 10
1.9733446709
 20
250.706125353
 30
0.0
  0
VERTEX
  5
59C
  8
0
  6
CONTINUOUS
 62
     7
 10
-2.4263364204
 20
251.1946748239
 30
0.0
  0
SEQEND
  5
89D
  8
0
  6
CONTINUOUS
 62
     7
  0
POLYLINE
  5
AB
  8
0
  6
CONTINUOUS
 62
     7
 66
     1
 10
0.0
 20
0.0
 30
0.0
  0
VERTEX
  5
59D
  8
0
  6
CONTINUOUS
 62
     7
 10
-8.5149747261
 20
254.5724998456
 30
0.0
  0
VERTEX
  5
59E
  8
0
  6
CONTINUOUS
 62
     7
 10
-8.4406358131
 20
254.3378423196
 30
0.0
  0
VERTEX
  5
59F
  8
0
  6
CONTINUOUS
 62
     7
 10
-8.1834060081
 20
254.0124367219
 30
0.0
  0
VERTEX
  5
5A0
  8
0
  6
CONTINUOUS
 62
     7
 10
-7.7736359962
 20
253.6188076478
 30
0.0
  0
VERTEX
  5
5A1
  8
0
  6
CONTINUOUS
 62
     7
 10
-7.2058898338
 20
253.1549881441
 30
0.0
  0
VERTEX
  5
5A2
  8
0
  6
CONTINUOUS
 62
     7
 10
-6.4731580147
 20
252.6487480146
 30
0.0
  0
VERTEX
  5
5A3
  8
0
  6
CONTINUOUS
 62
     7
 10
-5.5769664177
 20
252.1441470129
 30
0.0
  0
VERTEX
  5
5A4
  8
0
  6
CONTINUOUS
 62
     7
 10
-4.6968442329
 20
251.756603573
 30
0.0
  0
VERTEX
  5
5A5
  8
0
  6
CONTINUOUS
 62
     7
 10
-3.6991101631
 20
251.4352808935
 30
0.0
  0
VERTEX
  5
5A6
  8
0
  6
CONTINUOUS
 62
     7
 10
-3.0763131508
 20
251.2945126039
 30
0.0
  0
VERTEX
  5
5A7
  8
0
  6
CONTINUOUS
 62
     7
 10
-2.4263364204
 20
251.1946748239
 30
0.0
  0
SEQEND
  5
89C
  8
0
  6
CONTINUOUS
 62
     7
  0
POLYLINE
  5
AC
  8
0
  6
CONTINUOUS
 62
     7
 66
     1
 10
0.0
 20
0.0
 30
0.0
  0
VERTEX
  5
5A8
  8
0
  6
CONTINUOUS
 62
     7
 10
-8.5149747261
 20
254.5725058061
 30
0.0
  0
VERTEX
  5
5A9
  8
0
  6
CONTINUOUS
 62
     7
 10
-8.4866744408
 20
254.8688422185
 30
0.0
  0
VERTEX
  5
5AA
  8
0
  6
CONTINUOUS
 62
     7
 10
-8.4708434471
 20
254.993517254
 30
0.0
  0
SEQEND
  5
89B
  8
0
  6
CONTINUOUS
 62
     7
  0
POLYLINE
  5
AD
  8
0
  6
CONTINUOUS
 62
     7
 66
     1
 10
0.0
 20
0.0
 30
0.0
  0
VERTEX
  5
5AB
  8
0
  6
CONTINUOUS
 62
     7
 10
-8.4254723915
 20
255.09150729
 30
0.0
  0
VERTEX
  5
5AC
  8
0
  6
CONTINUOUS
 62
     7
 10
-8.4153634438
 20
255.136151169
 30
0.0
  0
VERTEX
  5
5AD
  8
0
  6
CONTINUOUS
 62
     7
 10
-8.3693724998
 20
255.2418659669
 30
0.0
  0
VERTEX
  5
5AE
  8
0
  6
CONTINUOUS
 62
     7
 10
-8.3715182671
 20
255.2887271387
 30
0.0
  0
VERTEX
  5
5AF
  8
0
  6
CONTINUOUS
 62
     7
 10
-8.3986264595
 20
255.3415785772
 30
0.0
  0
VERTEX
  5
5B0
  8
0
  6
CONTINUOUS
 62
     7
 10
-8.4017974266
 20
255.3991328222
 30
0.0
  0
VERTEX
  5
5B1
  8
0
  6
CONTINUOUS
 62
     7
 10
-8.3200436958
 20
255.4575632555
 30
0.0
  0
VERTEX
  5
5B2
  8
0
  6
CONTINUOUS
 62
     7
 10
-8.1053000816
 20
255.5141757471
 30
0.0
  0
VERTEX
  5
5B3
  8
0
  6
CONTINUOUS
 62
     7
 10
-7.7477675804
 20
255.5699060899
 30
0.0
  0
VERTEX
  5
5B4
  8
0
  6
CONTINUOUS
 62
     7
 10
-7.1465951332
 20
255.6244443399
 30
0.0
  0
VERTEX
  5
5B5
  8
0
  6
CONTINUOUS
 62
     7
 10
-6.2295180687
 20
255.6792567712
 30
0.0
  0
SEQEND
  5
89A
  8
0
  6
CONTINUOUS
 62
     7
  0
LINE
  5
AE
  8
0
  6
CONTINUOUS
 62
     7
 10
66.5768164269
 20
254.1143070203
 30
0.0
 11
66.5768164269
 21
254.4200073225
 31
0.0
  0
LINE
  5
AF
  8
0
  6
CONTINUOUS
 62
     7
 10
-8.6231929192
 20
253.9392600996
 30
0.0
 11
-8.6231929192
 21
253.7647973043
 31
0.0
  0
LINE
  5
B0
  8
0
  6
CONTINUOUS
 62
     7
 10
-8.6231929192
 20
254.4098149282
 30
0.0
 11
-8.6231929192
 21
254.1143070203
 31
0.0
  0
POLYLINE
  5
B1
  8
0
  6
CONTINUOUS
 62
     7
 66
     1
 10
0.0
 20
0.0
 30
0.0
  0
VERTEX
  5
5B6
  8
0
  6
CONTINUOUS
 62
     7
 10
426.5768784157
 20
253.3464203817
 30
0.0
  0
VERTEX
  5
5B7
  8
0
  6
CONTINUOUS
 62
     7
 10
426.4890211693
 20
253.0923317415
 30
0.0
  0
VERTEX
  5
5B8
  8
0
  6
CONTINUOUS
 62
     7
 10
426.2237089745
 20
252.7373205167
 30
0.0
  0
VERTEX
  5
5B9
  8
0
  6
CONTINUOUS
 62
     7
 10
425.814701902
 20
252.3055742723
 30
0.0
  0
VERTEX
  5
5BA
  8
0
  6
CONTINUOUS
 62
     7
 10
425.256277906
 20
251.8036375982
 30
0.0
  0
VERTEX
  5
5BB
  8
0
  6
CONTINUOUS
 62
     7
 10
424.5203274361
 20
251.2481580717
 30
0.0
  0
VERTEX
  5
5BC
  8
0
  6
CONTINUOUS
 62
     7
 10
423.6182469002
 20
250.6999562723
 30
0.0
  0
VERTEX
  5
5BD
  8
0
  6
CONTINUOUS
 62
     7
 10
422.7518576256
 20
250.2921293718
 30
0.0
  0
VERTEX
  5
5BE
  8
0
  6
CONTINUOUS
 62
     7
 10
421.7681902519
 20
249.9546478731
 30
0.0
  0
VERTEX
  5
5BF
  8
0
  6
CONTINUOUS
 62
     7
 10
421.1431282631
 20
249.8043786031
 30
0.0
  0
VERTEX
  5
5C0
  8
0
  6
CONTINUOUS
 62
     7
 10
420.4893129936
 20
249.6979247076
 30
0.0
  0
SEQEND
  5
899
  8
0
  6
CONTINUOUS
 62
     7
  0
POLYLINE
  5
B2
  8
0
  6
CONTINUOUS
 62
     7
 66
     1
 10
0.0
 20
0.0
 30
0.0
  0
VERTEX
  5
5C1
  8
0
  6
CONTINUOUS
 62
     7
 10
426.5768784157
 20
253.3464203817
 30
0.0
  0
VERTEX
  5
5C2
  8
0
  6
CONTINUOUS
 62
     7
 10
426.5768784157
 20
253.4012089712
 30
0.0
  0
VERTEX
  5
5C3
  8
0
  6
CONTINUOUS
 62
     7
 10
426.576663839
 20
253.6939035398
 30
0.0
  0
VERTEX
  5
5C4
  8
0
  6
CONTINUOUS
 62
     7
 10
426.5761870018
 20
253.816611622
 30
0.0
  0
VERTEX
  5
5C5
  8
0
  6
CONTINUOUS
 62
     7
 10
426.5758532158
 20
253.8302432043
 30
0.0
  0
VERTEX
  5
5C6
  8
0
  6
CONTINUOUS
 62
     7
 10
426.5760916344
 20
253.8173864824
 30
0.0
  0
SEQEND
  5
898
  8
0
  6
CONTINUOUS
 62
     7
  0
POLYLINE
  5
B3
  8
0
  6
CONTINUOUS
 62
     7
 66
     1
 10
0.0
 20
0.0
 30
0.0
  0
VERTEX
  5
5C7
  8
0
  6
CONTINUOUS
 62
     7
 10
426.5768068901
 20
254.1138182622
 30
0.0
  0
VERTEX
  5
5C8
  8
0
  6
CONTINUOUS
 62
     7
 10
426.5621203056
 20
254.0660570604
 30
0.0
  0
VERTEX
  5
5C9
  8
0
  6
CONTINUOUS
 62
     7
 10
426.576830732
 20
253.9392600996
 30
0.0
  0
SEQEND
  5
897
  8
0
  6
CONTINUOUS
 62
     7
  0
POLYLINE
  5
B4
  8
0
  6
CONTINUOUS
 62
     7
 66
     1
 10
0.0
 20
0.0
 30
0.0
  0
VERTEX
  5
5CA
  8
0
  6
CONTINUOUS
 62
     7
 10
351.376821386
 20
253.9392600996
 30
0.0
  0
VERTEX
  5
5CB
  8
0
  6
CONTINUOUS
 62
     7
 10
351.3915318123
 20
254.0660570604
 30
0.0
  0
VERTEX
  5
5CC
  8
0
  6
CONTINUOUS
 62
     7
 10
351.376821386
 20
254.1138182622
 30
0.0
  0
SEQEND
  5
896
  8
0
  6
CONTINUOUS
 62
     7
  0
POLYLINE
  5
B5
  8
0
  6
CONTINUOUS
 62
     7
 66
     1
 10
0.0
 20
0.0
 30
0.0
  0
VERTEX
  5
5CD
  8
0
  6
CONTINUOUS
 62
     7
 10
351.3767498604
 20
253.3465991956
 30
0.0
  0
VERTEX
  5
5CE
  8
0
  6
CONTINUOUS
 62
     7
 10
351.3767498604
 20
253.3512960416
 30
0.0
  0
VERTEX
  5
5CF
  8
0
  6
CONTINUOUS
 62
     7
 10
351.3769167534
 20
253.669793461
 30
0.0
  0
VERTEX
  5
5D0
  8
0
  6
CONTINUOUS
 62
     7
 10
351.3773816696
 20
253.8090358717
 30
0.0
  0
VERTEX
  5
5D1
  8
0
  6
CONTINUOUS
 62
     7
 10
351.3777750603
 20
253.8324008924
 30
0.0
  0
VERTEX
  5
5D2
  8
0
  6
CONTINUOUS
 62
     7
 10
351.3777154556
 20
253.8149903757
 30
0.0
  0
SEQEND
  5
895
  8
0
  6
CONTINUOUS
 62
     7
  0
POLYLINE
  5
B6
  8
0
  6
CONTINUOUS
 62
     7
 66
     1
 10
0.0
 20
0.0
 30
0.0
  0
VERTEX
  5
5D3
  8
0
  6
CONTINUOUS
 62
     7
 10
357.4643152824
 20
249.6979247076
 30
0.0
  0
VERTEX
  5
5D4
  8
0
  6
CONTINUOUS
 62
     7
 10
356.4502733818
 20
249.8850892526
 30
0.0
  0
VERTEX
  5
5D5
  8
0
  6
CONTINUOUS
 62
     7
 10
355.46496092
 20
250.1892696363
 30
0.0
  0
VERTEX
  5
5D6
  8
0
  6
CONTINUOUS
 62
     7
 10
354.5961278549
 20
250.5656610471
 30
0.0
  0
VERTEX
  5
5D7
  8
0
  6
CONTINUOUS
 62
     7
 10
353.8028496376
 20
251.007230137
 30
0.0
  0
VERTEX
  5
5D8
  8
0
  6
CONTINUOUS
 62
     7
 10
353.0453818909
 20
251.5275965673
 30
0.0
  0
VERTEX
  5
5D9
  8
0
  6
CONTINUOUS
 62
     7
 10
352.4040835968
 20
252.0571540338
 30
0.0
  0
VERTEX
  5
5DA
  8
0
  6
CONTINUOUS
 62
     7
 10
351.8578547112
 20
252.5941620809
 30
0.0
  0
VERTEX
  5
5DB
  8
0
  6
CONTINUOUS
 62
     7
 10
351.6497152916
 20
252.8327833158
 30
0.0
  0
VERTEX
  5
5DC
  8
0
  6
CONTINUOUS
 62
     7
 10
351.4975923172
 20
253.0388127309
 30
0.0
  0
VERTEX
  5
5DD
  8
0
  6
CONTINUOUS
 62
     7
 10
351.3767498604
 20
253.3465991956
 30
0.0
  0
SEQEND
  5
894
  8
0
  6
CONTINUOUS
 62
     7
  0
POLYLINE
  5
B7
  8
0
  6
CONTINUOUS
 62
     7
 66
     1
 10
0.0
 20
0.0
 30
0.0
  0
VERTEX
  5
5DE
  8
0
  6
CONTINUOUS
 62
     7
 10
420.4893129936
 20
249.6979247076
 30
0.0
  0
VERTEX
  5
5DF
  8
0
  6
CONTINUOUS
 62
     7
 10
413.3999842278
 20
248.8970111352
 30
0.0
  0
VERTEX
  5
5E0
  8
0
  6
CONTINUOUS
 62
     7
 10
406.2829273811
 20
248.2695709211
 30
0.0
  0
VERTEX
  5
5E1
  8
0
  6
CONTINUOUS
 62
     7
 10
399.1100209824
 20
247.8430043203
 30
0.0
  0
VERTEX
  5
5E2
  8
0
  6
CONTINUOUS
 62
     7
 10
391.9230955711
 20
247.6357887727
 30
0.0
  0
VERTEX
  5
5E3
  8
0
  6
CONTINUOUS
 62
     7
 10
386.8600505463
 20
247.626591776
 30
0.0
  0
VERTEX
  5
5E4
  8
0
  6
CONTINUOUS
 62
     7
 10
381.7985314003
 20
247.7302621347
 30
0.0
  0
VERTEX
  5
5E5
  8
0
  6
CONTINUOUS
 62
     7
 10
376.7278689018
 20
247.9461978418
 30
0.0
  0
VERTEX
  5
5E6
  8
0
  6
CONTINUOUS
 62
     7
 10
371.6655868164
 20
248.2699523908
 30
0.0
  0
VERTEX
  5
5E7
  8
0
  6
CONTINUOUS
 62
     7
 10
364.554705011
 20
248.8965044958
 30
0.0
  0
VERTEX
  5
5E8
  8
0
  6
CONTINUOUS
 62
     7
 10
357.4643152824
 20
249.6979247076
 30
0.0
  0
SEQEND
  5
893
  8
0
  6
CONTINUOUS
 62
     7
  0
POLYLINE
  5
B8
  8
0
  6
CONTINUOUS
 62
     7
 66
     1
 10
0.0
 20
0.0
 30
0.0
  0
VERTEX
  5
5E9
  8
0
  6
CONTINUOUS
 62
     7
 10
357.6442140213
 20
255.0304959756
 30
0.0
  0
VERTEX
  5
5EA
  8
0
  6
CONTINUOUS
 62
     7
 10
356.6377419106
 20
255.248142336
 30
0.0
  0
VERTEX
  5
5EB
  8
0
  6
CONTINUOUS
 62
     7
 10
355.7131546608
 20
255.4379533273
 30
0.0
  0
VERTEX
  5
5EC
  8
0
  6
CONTINUOUS
 62
     7
 10
354.9456614128
 20
255.575926159
 30
0.0
  0
VERTEX
  5
5ED
  8
0
  6
CONTINUOUS
 62
     7
 10
354.3101805321
 20
255.6598494989
 30
0.0
  0
VERTEX
  5
5EE
  8
0
  6
CONTINUOUS
 62
     7
 10
354.0084498993
 20
255.6806038362
 30
0.0
  0
VERTEX
  5
5EF
  8
0
  6
CONTINUOUS
 62
     7
 10
353.7704604736
 20
255.6791792852
 30
0.0
  0
SEQEND
  5
892
  8
0
  6
CONTINUOUS
 62
     7
  0
ARC
  5
B9
  8
0
  6
CONTINUOUS
 62
     7
 10
388.8612012829
 20
394.2664521508
 30
0.0
 40
142.6925078120372
 50
257.3631399214
 51
260.3830426002
  0
ARC
  5
BA
  8
0
  6
CONTINUOUS
 62
     7
 10
388.3741187916
 20
397.8980701092
 30
0.0
 40
146.3933318034799
 50
279.6014055979
 51
282.600237202
  0
POLYLINE
  5
BB
  8
0
  6
CONTINUOUS
 62
     7
 66
     1
 10
0.0
 20
0.0
 30
0.0
  0
VERTEX
  5
5F0
  8
0
  6
CONTINUOUS
 62
     7
 10
424.1831797234
 20
255.6791792852
 30
0.0
  0
VERTEX
  5
5F1
  8
0
  6
CONTINUOUS
 62
     7
 10
423.764087545
 20
255.6702683908
 30
0.0
  0
VERTEX
  5
5F2
  8
0
  6
CONTINUOUS
 62
     7
 10
423.1544512383
 20
255.5985520822
 30
0.0
  0
VERTEX
  5
5F3
  8
0
  6
CONTINUOUS
 62
     7
 10
422.4032181374
 20
255.4692934495
 30
0.0
  0
VERTEX
  5
5F4
  8
0
  6
CONTINUOUS
 62
     7
 10
421.4858311287
 20
255.2841018182
 30
0.0
  0
VERTEX
  5
5F5
  8
0
  6
CONTINUOUS
 62
     7
 10
420.3094261757
 20
255.0304959756
 30
0.0
  0
SEQEND
  5
891
  8
0
  6
CONTINUOUS
 62
     7
  0
POLYLINE
  5
BC
  8
0
  6
CONTINUOUS
 62
     7
 66
     1
 10
0.0
 20
0.0
 30
0.0
  0
VERTEX
  5
5F6
  8
0
  6
CONTINUOUS
 62
     7
 10
424.1831558815
 20
255.6792567712
 30
0.0
  0
VERTEX
  5
5F7
  8
0
  6
CONTINUOUS
 62
     7
 10
425.100232946
 20
255.6244443399
 30
0.0
  0
VERTEX
  5
5F8
  8
0
  6
CONTINUOUS
 62
     7
 10
425.7014053932
 20
255.5699060899
 30
0.0
  0
VERTEX
  5
5F9
  8
0
  6
CONTINUOUS
 62
     7
 10
426.0589378944
 20
255.5141757471
 30
0.0
  0
VERTEX
  5
5FA
  8
0
  6
CONTINUOUS
 62
     7
 10
426.2736815086
 20
255.4575632555
 30
0.0
  0
VERTEX
  5
5FB
  8
0
  6
CONTINUOUS
 62
     7
 10
426.3554352394
 20
255.3991328222
 30
0.0
  0
VERTEX
  5
5FC
  8
0
  6
CONTINUOUS
 62
     7
 10
426.3522642723
 20
255.3415785772
 30
0.0
  0
VERTEX
  5
5FD
  8
0
  6
CONTINUOUS
 62
     7
 10
426.3251560799
 20
255.2887271387
 30
0.0
  0
VERTEX
  5
5FE
  8
0
  6
CONTINUOUS
 62
     7
 10
426.3230103127
 20
255.2418659669
 30
0.0
  0
VERTEX
  5
5FF
  8
0
  6
CONTINUOUS
 62
     7
 10
426.3699549309
 20
255.1335702878
 30
0.0
  0
VERTEX
  5
600
  8
0
  6
CONTINUOUS
 62
     7
 10
426.3791817299
 20
255.0920139295
 30
0.0
  0
SEQEND
  5
890
  8
0
  6
CONTINUOUS
 62
     7
  0
ARC
  5
BD
  8
0
  6
CONTINUOUS
 62
     7
 10
421.5386755123
 20
254.2639076452
 30
0.0
 40
4.939586208548237
 50
3.58185759
 51
8.430507933
  0
POLYLINE
  5
BE
  8
0
  6
CONTINUOUS
 62
     7
 66
     1
 10
0.0
 20
0.0
 30
0.0
  0
VERTEX
  5
601
  8
0
  6
CONTINUOUS
 62
     7
 10
420.3799742332
 20
251.1946748239
 30
0.0
  0
VERTEX
  5
602
  8
0
  6
CONTINUOUS
 62
     7
 10
421.4036720863
 20
251.3736020071
 30
0.0
  0
VERTEX
  5
603
  8
0
  6
CONTINUOUS
 62
     7
 10
422.3996657005
 20
251.6643832666
 30
0.0
  0
VERTEX
  5
604
  8
0
  6
CONTINUOUS
 62
     7
 10
423.2799070946
 20
252.0233283979
 30
0.0
  0
VERTEX
  5
605
  8
0
  6
CONTINUOUS
 62
     7
 10
424.0845459572
 20
252.4421344739
 30
0.0
  0
VERTEX
  5
606
  8
0
  6
CONTINUOUS
 62
     7
 10
424.8442667595
 20
252.9258380872
 30
0.0
  0
VERTEX
  5
607
  8
0
  6
CONTINUOUS
 62
     7
 10
425.485660421
 20
253.4124146444
 30
0.0
  0
VERTEX
  5
608
  8
0
  6
CONTINUOUS
 62
     7
 10
426.013376104
 20
253.8857112867
 30
0.0
  0
VERTEX
  5
609
  8
0
  6
CONTINUOUS
 62
     7
 10
426.3566273323
 20
254.2788396818
 30
0.0
  0
VERTEX
  5
60A
  8
0
  6
CONTINUOUS
 62
     7
 10
426.4446991554
 20
254.4395040018
 30
0.0
  0
VERTEX
  5
60B
  8
0
  6
CONTINUOUS
 62
     7
 10
426.4686125389
 20
254.5724998456
 30
0.0
  0
SEQEND
  5
88F
  8
0
  6
CONTINUOUS
 62
     7
  0
POLYLINE
  5
BF
  8
0
  6
CONTINUOUS
 62
     7
 66
     1
 10
0.0
 20
0.0
 30
0.0
  0
VERTEX
  5
60C
  8
0
  6
CONTINUOUS
 62
     7
 10
420.3799742332
 20
251.1946748239
 30
0.0
  0
VERTEX
  5
60D
  8
0
  6
CONTINUOUS
 62
     7
 10
415.0291460625
 20
250.6080816728
 30
0.0
  0
VERTEX
  5
60E
  8
0
  6
CONTINUOUS
 62
     7
 10
409.6630114189
 20
250.1100789053
 30
0.0
  0
VERTEX
  5
60F
  8
0
  6
CONTINUOUS
 62
     7
 10
404.2707460991
 20
249.7129271966
 30
0.0
  0
VERTEX
  5
610
  8
0
  6
CONTINUOUS
 62
     7
 10
398.8676565758
 20
249.427945469
 30
0.0
  0
VERTEX
  5
611
  8
0
  6
CONTINUOUS
 62
     7
 10
392.9661649338
 20
249.254281376
 30
0.0
  0
VERTEX
  5
612
  8
0
  6
CONTINUOUS
 62
     7
 10
387.0610135666
 20
249.227948044
 30
0.0
  0
VERTEX
  5
613
  8
0
  6
CONTINUOUS
 62
     7
 10
381.1358469597
 20
249.3512223703
 30
0.0
  0
VERTEX
  5
614
  8
0
  6
CONTINUOUS
 62
     7
 10
375.2178090683
 20
249.6199916345
 30
0.0
  0
VERTEX
  5
615
  8
0
  6
CONTINUOUS
 62
     7
 10
370.7965153328
 20
249.9120067102
 30
0.0
  0
VERTEX
  5
616
  8
0
  6
CONTINUOUS
 62
     7
 10
366.3835781685
 20
250.2759049875
 30
0.0
  0
VERTEX
  5
617
  8
0
  6
CONTINUOUS
 62
     7
 10
361.9733351341
 20
250.706125353
 30
0.0
  0
VERTEX
  5
618
  8
0
  6
CONTINUOUS
 62
     7
 10
357.5736540428
 20
251.1946748239
 30
0.0
  0
SEQEND
  5
88E
  8
0
  6
CONTINUOUS
 62
     7
  0
POLYLINE
  5
C0
  8
0
  6
CONTINUOUS
 62
     7
 66
     1
 10
0.0
 20
0.0
 30
0.0
  0
VERTEX
  5
619
  8
0
  6
CONTINUOUS
 62
     7
 10
351.4850157372
 20
254.5724998456
 30
0.0
  0
VERTEX
  5
61A
  8
0
  6
CONTINUOUS
 62
     7
 10
351.5593546501
 20
254.3378423196
 30
0.0
  0
VERTEX
  5
61B
  8
0
  6
CONTINUOUS
 62
     7
 10
351.816596376
 20
254.0124367219
 30
0.0
  0
VERTEX
  5
61C
  8
0
  6
CONTINUOUS
 62
     7
 10
352.226354467
 20
253.6188076478
 30
0.0
  0
VERTEX
  5
61D
  8
0
  6
CONTINUOUS
 62
     7
 10
352.7941125504
 20
253.1549881441
 30
0.0
  0
VERTEX
  5
61E
  8
0
  6
CONTINUOUS
 62
     7
 10
353.5268443695
 20
252.6487480146
 30
0.0
  0
VERTEX
  5
61F
  8
0
  6
CONTINUOUS
 62
     7
 10
354.4230359665
 20
252.1441470129
 30
0.0
  0
VERTEX
  5
620
  8
0
  6
CONTINUOUS
 62
     7
 10
355.3031462303
 20
251.756603573
 30
0.0
  0
VERTEX
  5
621
  8
0
  6
CONTINUOUS
 62
     7
 10
356.3008803001
 20
251.4352808935
 30
0.0
  0
VERTEX
  5
622
  8
0
  6
CONTINUOUS
 62
     7
 10
356.9236892334
 20
251.2945126039
 30
0.0
  0
VERTEX
  5
623
  8
0
  6
CONTINUOUS
 62
     7
 10
357.5736540428
 20
251.1946748239
 30
0.0
  0
SEQEND
  5
88D
  8
0
  6
CONTINUOUS
 62
     7
  0
POLYLINE
  5
C1
  8
0
  6
CONTINUOUS
 62
     7
 66
     1
 10
0.0
 20
0.0
 30
0.0
  0
VERTEX
  5
624
  8
0
  6
CONTINUOUS
 62
     7
 10
351.4850157372
 20
254.5725058061
 30
0.0
  0
VERTEX
  5
625
  8
0
  6
CONTINUOUS
 62
     7
 10
351.5133279434
 20
254.8688422185
 30
0.0
  0
VERTEX
  5
626
  8
0
  6
CONTINUOUS
 62
     7
 10
351.5291589371
 20
254.993517254
 30
0.0
  0
SEQEND
  5
88C
  8
0
  6
CONTINUOUS
 62
     7
  0
POLYLINE
  5
C2
  8
0
  6
CONTINUOUS
 62
     7
 66
     1
 10
0.0
 20
0.0
 30
0.0
  0
VERTEX
  5
627
  8
0
  6
CONTINUOUS
 62
     7
 10
351.5745299927
 20
255.09150729
 30
0.0
  0
VERTEX
  5
628
  8
0
  6
CONTINUOUS
 62
     7
 10
351.5846389404
 20
255.136151169
 30
0.0
  0
VERTEX
  5
629
  8
0
  6
CONTINUOUS
 62
     7
 10
351.6306298843
 20
255.2418659669
 30
0.0
  0
VERTEX
  5
62A
  8
0
  6
CONTINUOUS
 62
     7
 10
351.6284721962
 20
255.2887271387
 30
0.0
  0
VERTEX
  5
62B
  8
0
  6
CONTINUOUS
 62
     7
 10
351.6013759247
 20
255.3415785772
 30
0.0
  0
VERTEX
  5
62C
  8
0
  6
CONTINUOUS
 62
     7
 10
351.5982049576
 20
255.3991328222
 30
0.0
  0
VERTEX
  5
62D
  8
0
  6
CONTINUOUS
 62
     7
 10
351.6799586884
 20
255.4575632555
 30
0.0
  0
VERTEX
  5
62E
  8
0
  6
CONTINUOUS
 62
     7
 10
351.8947142235
 20
255.5141757471
 30
0.0
  0
VERTEX
  5
62F
  8
0
  6
CONTINUOUS
 62
     7
 10
352.2522348038
 20
255.5699060899
 30
0.0
  0
VERTEX
  5
630
  8
0
  6
CONTINUOUS
 62
     7
 10
352.853407251
 20
255.6244443399
 30
0.0
  0
VERTEX
  5
631
  8
0
  6
CONTINUOUS
 62
     7
 10
353.7704723946
 20
255.6792567712
 30
0.0
  0
SEQEND
  5
88B
  8
0
  6
CONTINUOUS
 62
     7
  0
LINE
  5
C3
  8
0
  6
CONTINUOUS
 62
     7
 10
426.576830732
 20
254.1143070203
 30
0.0
 11
426.576830732
 21
254.4200073225
 31
0.0
  0
LINE
  5
C4
  8
0
  6
CONTINUOUS
 62
     7
 10
351.376821386
 20
253.9392600996
 30
0.0
 11
351.376821386
 21
253.7647973043
 31
0.0
  0
LINE
  5
C5
  8
0
  6
CONTINUOUS
 62
     7
 10
351.376821386
 20
254.4098149282
 30
0.0
 11
351.376821386
 21
254.1143070203
 31
0.0
  0
POLYLINE
  5
C6
  8
0
  6
CONTINUOUS
 62
     7
 66
     1
 10
0.0
 20
0.0
 30
0.0
  0
VERTEX
  5
632
  8
0
  6
CONTINUOUS
 62
     7
 10
186.5768897406
 20
253.3464203817
 30
0.0
  0
VERTEX
  5
633
  8
0
  6
CONTINUOUS
 62
     7
 10
186.4890161029
 20
253.0923317415
 30
0.0
  0
VERTEX
  5
634
  8
0
  6
CONTINUOUS
 62
     7
 10
186.2237024179
 20
252.7373205167
 30
0.0
  0
VERTEX
  5
635
  8
0
  6
CONTINUOUS
 62
     7
 10
185.8147027961
 20
252.3055742723
 30
0.0
  0
VERTEX
  5
636
  8
0
  6
CONTINUOUS
 62
     7
 10
185.2562877408
 20
251.8036375982
 30
0.0
  0
VERTEX
  5
637
  8
0
  6
CONTINUOUS
 62
     7
 10
184.52032684
 20
251.2481580717
 30
0.0
  0
VERTEX
  5
638
  8
0
  6
CONTINUOUS
 62
     7
 10
183.6182492844
 20
250.6999562723
 30
0.0
  0
VERTEX
  5
639
  8
0
  6
CONTINUOUS
 62
     7
 10
182.7518689505
 20
250.2921293718
 30
0.0
  0
VERTEX
  5
63A
  8
0
  6
CONTINUOUS
 62
     7
 10
181.7681956163
 20
249.9546478731
 30
0.0
  0
VERTEX
  5
63B
  8
0
  6
CONTINUOUS
 62
     7
 10
181.143127667
 20
249.8043786031
 30
0.0
  0
VERTEX
  5
63C
  8
0
  6
CONTINUOUS
 62
     7
 10
180.489318358
 20
249.6979247076
 30
0.0
  0
SEQEND
  5
88A
  8
0
  6
CONTINUOUS
 62
     7
  0
POLYLINE
  5
C7
  8
0
  6
CONTINUOUS
 62
     7
 66
     1
 10
0.0
 20
0.0
 30
0.0
  0
VERTEX
  5
63D
  8
0
  6
CONTINUOUS
 62
     7
 10
186.5768897406
 20
253.3464203817
 30
0.0
  0
VERTEX
  5
63E
  8
0
  6
CONTINUOUS
 62
     7
 10
186.5768882504
 20
253.4012089712
 30
0.0
  0
VERTEX
  5
63F
  8
0
  6
CONTINUOUS
 62
     7
 10
186.5766736737
 20
253.6939035398
 30
0.0
  0
VERTEX
  5
640
  8
0
  6
CONTINUOUS
 62
     7
 10
186.5761968366
 20
253.816611622
 30
0.0
  0
VERTEX
  5
641
  8
0
  6
CONTINUOUS
 62
     7
 10
186.5758466593
 20
253.8302432043
 30
0.0
  0
VERTEX
  5
642
  8
0
  6
CONTINUOUS
 62
     7
 10
186.5760925284
 20
253.8173864824
 30
0.0
  0
SEQEND
  5
889
  8
0
  6
CONTINUOUS
 62
     7
  0
POLYLINE
  5
C8
  8
0
  6
CONTINUOUS
 62
     7
 66
     1
 10
0.0
 20
0.0
 30
0.0
  0
VERTEX
  5
643
  8
0
  6
CONTINUOUS
 62
     7
 10
186.576818215
 20
254.1138182622
 30
0.0
  0
VERTEX
  5
644
  8
0
  6
CONTINUOUS
 62
     7
 10
186.5621092788
 20
254.0660570604
 30
0.0
  0
VERTEX
  5
645
  8
0
  6
CONTINUOUS
 62
     7
 10
186.5768226853
 20
253.9392600996
 30
0.0
  0
SEQEND
  5
888
  8
0
  6
CONTINUOUS
 62
     7
  0
POLYLINE
  5
C9
  8
0
  6
CONTINUOUS
 62
     7
 66
     1
 10
0.0
 20
0.0
 30
0.0
  0
VERTEX
  5
646
  8
0
  6
CONTINUOUS
 62
     7
 10
111.3768178097
 20
253.9392600996
 30
0.0
  0
VERTEX
  5
647
  8
0
  6
CONTINUOUS
 62
     7
 10
111.391528236
 20
254.0660570604
 30
0.0
  0
VERTEX
  5
648
  8
0
  6
CONTINUOUS
 62
     7
 10
111.3768178097
 20
254.1138182622
 30
0.0
  0
SEQEND
  5
887
  8
0
  6
CONTINUOUS
 62
     7
  0
POLYLINE
  5
CA
  8
0
  6
CONTINUOUS
 62
     7
 66
     1
 10
0.0
 20
0.0
 30
0.0
  0
VERTEX
  5
649
  8
0
  6
CONTINUOUS
 62
     7
 10
111.3767462841
 20
253.3465991956
 30
0.0
  0
VERTEX
  5
64A
  8
0
  6
CONTINUOUS
 62
     7
 10
111.3767462841
 20
253.3512960416
 30
0.0
  0
VERTEX
  5
64B
  8
0
  6
CONTINUOUS
 62
     7
 10
111.3769191376
 20
253.669793461
 30
0.0
  0
VERTEX
  5
64C
  8
0
  6
CONTINUOUS
 62
     7
 10
111.3773840538
 20
253.8090358717
 30
0.0
  0
VERTEX
  5
64D
  8
0
  6
CONTINUOUS
 62
     7
 10
111.377771484
 20
253.8324008924
 30
0.0
  0
VERTEX
  5
64E
  8
0
  6
CONTINUOUS
 62
     7
 10
111.3777178398
 20
253.8149903757
 30
0.0
  0
SEQEND
  5
886
  8
0
  6
CONTINUOUS
 62
     7
  0
POLYLINE
  5
CB
  8
0
  6
CONTINUOUS
 62
     7
 66
     1
 10
0.0
 20
0.0
 30
0.0
  0
VERTEX
  5
64F
  8
0
  6
CONTINUOUS
 62
     7
 10
117.4643176666
 20
249.6979247076
 30
0.0
  0
VERTEX
  5
650
  8
0
  6
CONTINUOUS
 62
     7
 10
116.4502698055
 20
249.8850892526
 30
0.0
  0
VERTEX
  5
651
  8
0
  6
CONTINUOUS
 62
     7
 10
115.4649633041
 20
250.1892696363
 30
0.0
  0
VERTEX
  5
652
  8
0
  6
CONTINUOUS
 62
     7
 10
114.5961242786
 20
250.5656610471
 30
0.0
  0
VERTEX
  5
653
  8
0
  6
CONTINUOUS
 62
     7
 10
113.8028520218
 20
251.007230137
 30
0.0
  0
VERTEX
  5
654
  8
0
  6
CONTINUOUS
 62
     7
 10
113.0453842751
 20
251.5275965673
 30
0.0
  0
VERTEX
  5
655
  8
0
  6
CONTINUOUS
 62
     7
 10
112.4040919415
 20
252.0571540338
 30
0.0
  0
VERTEX
  5
656
  8
0
  6
CONTINUOUS
 62
     7
 10
111.8578511349
 20
252.5941620809
 30
0.0
  0
VERTEX
  5
657
  8
0
  6
CONTINUOUS
 62
     7
 10
111.6497117153
 20
252.8327833158
 30
0.0
  0
VERTEX
  5
658
  8
0
  6
CONTINUOUS
 62
     7
 10
111.4975947014
 20
253.0388127309
 30
0.0
  0
VERTEX
  5
659
  8
0
  6
CONTINUOUS
 62
     7
 10
111.3767462841
 20
253.3465991956
 30
0.0
  0
SEQEND
  5
885
  8
0
  6
CONTINUOUS
 62
     7
  0
POLYLINE
  5
CC
  8
0
  6
CONTINUOUS
 62
     7
 66
     1
 10
0.0
 20
0.0
 30
0.0
  0
VERTEX
  5
65A
  8
0
  6
CONTINUOUS
 62
     7
 10
180.489318358
 20
249.6979247076
 30
0.0
  0
VERTEX
  5
65B
  8
0
  6
CONTINUOUS
 62
     7
 10
173.3999895922
 20
248.8970111352
 30
0.0
  0
VERTEX
  5
65C
  8
0
  6
CONTINUOUS
 62
     7
 10
166.2829238049
 20
248.2695709211
 30
0.0
  0
VERTEX
  5
65D
  8
0
  6
CONTINUOUS
 62
     7
 10
159.1100174061
 20
247.8430043203
 30
0.0
  0
VERTEX
  5
65E
  8
0
  6
CONTINUOUS
 62
     7
 10
151.9230919949
 20
247.6357887727
 30
0.0
  0
VERTEX
  5
65F
  8
0
  6
CONTINUOUS
 62
     7
 10
146.8600588909
 20
247.626591776
 30
0.0
  0
VERTEX
  5
660
  8
0
  6
CONTINUOUS
 62
     7
 10
141.798527824
 20
247.7302621347
 30
0.0
  0
VERTEX
  5
661
  8
0
  6
CONTINUOUS
 62
     7
 10
136.7278653255
 20
247.9461978418
 30
0.0
  0
VERTEX
  5
662
  8
0
  6
CONTINUOUS
 62
     7
 10
131.6655892006
 20
248.2699523908
 30
0.0
  0
VERTEX
  5
663
  8
0
  6
CONTINUOUS
 62
     7
 10
124.5547073952
 20
248.8965044958
 30
0.0
  0
VERTEX
  5
664
  8
0
  6
CONTINUOUS
 62
     7
 10
117.4643176666
 20
249.6979247076
 30
0.0
  0
SEQEND
  5
884
  8
0
  6
CONTINUOUS
 62
     7
  0
POLYLINE
  5
CD
  8
0
  6
CONTINUOUS
 62
     7
 66
     1
 10
0.0
 20
0.0
 30
0.0
  0
VERTEX
  5
665
  8
0
  6
CONTINUOUS
 62
     7
 10
117.6442164055
 20
255.0304959756
 30
0.0
  0
VERTEX
  5
666
  8
0
  6
CONTINUOUS
 62
     7
 10
116.6377442947
 20
255.248142336
 30
0.0
  0
VERTEX
  5
667
  8
0
  6
CONTINUOUS
 62
     7
 10
115.7131510845
 20
255.4379533273
 30
0.0
  0
VERTEX
  5
668
  8
0
  6
CONTINUOUS
 62
     7
 10
114.9456578365
 20
255.575926159
 30
0.0
  0
VERTEX
  5
669
  8
0
  6
CONTINUOUS
 62
     7
 10
114.3101769558
 20
255.6598494989
 30
0.0
  0
VERTEX
  5
66A
  8
0
  6
CONTINUOUS
 62
     7
 10
114.008446323
 20
255.6806038362
 30
0.0
  0
VERTEX
  5
66B
  8
0
  6
CONTINUOUS
 62
     7
 10
113.7704568974
 20
255.6791792852
 30
0.0
  0
SEQEND
  5
883
  8
0
  6
CONTINUOUS
 62
     7
  0
ARC
  5
CE
  8
0
  6
CONTINUOUS
 62
     7
 10
148.8608707073
 20
394.2646613437
 30
0.0
 40
142.6906875431524
 50
257.3631130655
 51
260.3830519281
  0
ARC
  5
CF
  8
0
  6
CONTINUOUS
 62
     7
 10
148.3750778225
 20
397.8931488423
 30
0.0
 40
146.3883184208946
 50
279.6013542355
 51
282.6002885644
  0
POLYLINE
  5
D0
  8
0
  6
CONTINUOUS
 62
     7
 66
     1
 10
0.0
 20
0.0
 30
0.0
  0
VERTEX
  5
66C
  8
0
  6
CONTINUOUS
 62
     7
 10
184.1831806174
 20
255.6791792852
 30
0.0
  0
VERTEX
  5
66D
  8
0
  6
CONTINUOUS
 62
     7
 10
183.7640929094
 20
255.6702683908
 30
0.0
  0
VERTEX
  5
66E
  8
0
  6
CONTINUOUS
 62
     7
 10
183.1544625631
 20
255.5985520822
 30
0.0
  0
VERTEX
  5
66F
  8
0
  6
CONTINUOUS
 62
     7
 10
182.4032175413
 20
255.4692934495
 30
0.0
  0
VERTEX
  5
670
  8
0
  6
CONTINUOUS
 62
     7
 10
181.4858424536
 20
255.2841018182
 30
0.0
  0
VERTEX
  5
671
  8
0
  6
CONTINUOUS
 62
     7
 10
180.3094196192
 20
255.0304959756
 30
0.0
  0
SEQEND
  5
882
  8
0
  6
CONTINUOUS
 62
     7
  0
POLYLINE
  5
D1
  8
0
  6
CONTINUOUS
 62
     7
 66
     1
 10
0.0
 20
0.0
 30
0.0
  0
VERTEX
  5
672
  8
0
  6
CONTINUOUS
 62
     7
 10
184.183162736
 20
255.6792567712
 30
0.0
  0
VERTEX
  5
673
  8
0
  6
CONTINUOUS
 62
     7
 10
185.1002293697
 20
255.6244443399
 30
0.0
  0
VERTEX
  5
674
  8
0
  6
CONTINUOUS
 62
     7
 10
185.7014033071
 20
255.5699060899
 30
0.0
  0
VERTEX
  5
675
  8
0
  6
CONTINUOUS
 62
     7
 10
186.0589253775
 20
255.5141757471
 30
0.0
  0
VERTEX
  5
676
  8
0
  6
CONTINUOUS
 62
     7
 10
186.2736838928
 20
255.4575632555
 30
0.0
  0
VERTEX
  5
677
  8
0
  6
CONTINUOUS
 62
     7
 10
186.355430173
 20
255.3991328222
 30
0.0
  0
VERTEX
  5
678
  8
0
  6
CONTINUOUS
 62
     7
 10
186.3522651664
 20
255.3415785772
 30
0.0
  0
VERTEX
  5
679
  8
0
  6
CONTINUOUS
 62
     7
 10
186.3251644245
 20
255.2887271387
 30
0.0
  0
VERTEX
  5
67A
  8
0
  6
CONTINUOUS
 62
     7
 10
186.3230067364
 20
255.2418659669
 30
0.0
  0
VERTEX
  5
67B
  8
0
  6
CONTINUOUS
 62
     7
 10
186.369943904
 20
255.1335702878
 30
0.0
  0
VERTEX
  5
67C
  8
0
  6
CONTINUOUS
 62
     7
 10
186.3791781536
 20
255.0920139295
 30
0.0
  0
SEQEND
  5
881
  8
0
  6
CONTINUOUS
 62
     7
  0
ARC
  5
D2
  8
0
  6
CONTINUOUS
 62
     7
 10
181.5327922444
 20
254.2631648274
 30
0.0
 40
4.945514220558912
 50
3.5861812415
 51
8.4290288726
  0
POLYLINE
  5
D3
  8
0
  6
CONTINUOUS
 62
     7
 66
     1
 10
0.0
 20
0.0
 30
0.0
  0
VERTEX
  5
67D
  8
0
  6
CONTINUOUS
 62
     7
 10
180.3799825779
 20
251.1946748239
 30
0.0
  0
VERTEX
  5
67E
  8
0
  6
CONTINUOUS
 62
     7
 10
181.4036774508
 20
251.3736020071
 30
0.0
  0
VERTEX
  5
67F
  8
0
  6
CONTINUOUS
 62
     7
 10
182.3996561638
 20
251.6643832666
 30
0.0
  0
VERTEX
  5
680
  8
0
  6
CONTINUOUS
 62
     7
 10
183.2799094788
 20
252.0233283979
 30
0.0
  0
VERTEX
  5
681
  8
0
  6
CONTINUOUS
 62
     7
 10
184.0845394007
 20
252.4421344739
 30
0.0
  0
VERTEX
  5
682
  8
0
  6
CONTINUOUS
 62
     7
 10
184.8442587129
 20
252.9258380872
 30
0.0
  0
VERTEX
  5
683
  8
0
  6
CONTINUOUS
 62
     7
 10
185.4856628052
 20
253.4124146444
 30
0.0
  0
VERTEX
  5
684
  8
0
  6
CONTINUOUS
 62
     7
 10
186.0133814684
 20
253.8857112867
 30
0.0
  0
VERTEX
  5
685
  8
0
  6
CONTINUOUS
 62
     7
 10
186.3566148153
 20
254.2788396818
 30
0.0
  0
VERTEX
  5
686
  8
0
  6
CONTINUOUS
 62
     7
 10
186.4446955791
 20
254.4395040018
 30
0.0
  0
VERTEX
  5
687
  8
0
  6
CONTINUOUS
 62
     7
 10
186.4686223737
 20
254.5724998456
 30
0.0
  0
SEQEND
  5
880
  8
0
  6
CONTINUOUS
 62
     7
  0
POLYLINE
  5
D4
  8
0
  6
CONTINUOUS
 62
     7
 66
     1
 10
0.0
 20
0.0
 30
0.0
  0
VERTEX
  5
688
  8
0
  6
CONTINUOUS
 62
     7
 10
180.3799825779
 20
251.1946748239
 30
0.0
  0
VERTEX
  5
689
  8
0
  6
CONTINUOUS
 62
     7
 10
175.0291573874
 20
250.6080816728
 30
0.0
  0
VERTEX
  5
68A
  8
0
  6
CONTINUOUS
 62
     7
 10
169.6629989019
 20
250.1100789053
 30
0.0
  0
VERTEX
  5
68B
  8
0
  6
CONTINUOUS
 62
     7
 10
164.270745503
 20
249.7129271966
 30
0.0
  0
VERTEX
  5
68C
  8
0
  6
CONTINUOUS
 62
     7
 10
158.8676529995
 20
249.427945469
 30
0.0
  0
VERTEX
  5
68D
  8
0
  6
CONTINUOUS
 62
     7
 10
152.9661613575
 20
249.254281376
 30
0.0
  0
VERTEX
  5
68E
  8
0
  6
CONTINUOUS
 62
     7
 10
147.0610159508
 20
249.227948044
 30
0.0
  0
VERTEX
  5
68F
  8
0
  6
CONTINUOUS
 62
     7
 10
141.1358493439
 20
249.3512223703
 30
0.0
  0
VERTEX
  5
690
  8
0
  6
CONTINUOUS
 62
     7
 10
135.217805492
 20
249.6199916345
 30
0.0
  0
VERTEX
  5
691
  8
0
  6
CONTINUOUS
 62
     7
 10
130.796517717
 20
249.9120067102
 30
0.0
  0
VERTEX
  5
692
  8
0
  6
CONTINUOUS
 62
     7
 10
126.3835745922
 20
250.2759049875
 30
0.0
  0
VERTEX
  5
693
  8
0
  6
CONTINUOUS
 62
     7
 10
121.9733315578
 20
250.706125353
 30
0.0
  0
VERTEX
  5
694
  8
0
  6
CONTINUOUS
 62
     7
 10
117.573656427
 20
251.1946748239
 30
0.0
  0
SEQEND
  5
87F
  8
0
  6
CONTINUOUS
 62
     7
  0
POLYLINE
  5
D5
  8
0
  6
CONTINUOUS
 62
     7
 66
     1
 10
0.0
 20
0.0
 30
0.0
  0
VERTEX
  5
695
  8
0
  6
CONTINUOUS
 62
     7
 10
111.4850181213
 20
254.5724998456
 30
0.0
  0
VERTEX
  5
696
  8
0
  6
CONTINUOUS
 62
     7
 10
111.5593570343
 20
254.3378423196
 30
0.0
  0
VERTEX
  5
697
  8
0
  6
CONTINUOUS
 62
     7
 10
111.8165987602
 20
254.0124367219
 30
0.0
  0
VERTEX
  5
698
  8
0
  6
CONTINUOUS
 62
     7
 10
112.2263508907
 20
253.6188076478
 30
0.0
  0
VERTEX
  5
699
  8
0
  6
CONTINUOUS
 62
     7
 10
112.7941149345
 20
253.1549881441
 30
0.0
  0
VERTEX
  5
69A
  8
0
  6
CONTINUOUS
 62
     7
 10
113.5268407932
 20
252.6487480146
 30
0.0
  0
VERTEX
  5
69B
  8
0
  6
CONTINUOUS
 62
     7
 10
114.4230323902
 20
252.1441470129
 30
0.0
  0
VERTEX
  5
69C
  8
0
  6
CONTINUOUS
 62
     7
 10
115.3031486145
 20
251.756603573
 30
0.0
  0
VERTEX
  5
69D
  8
0
  6
CONTINUOUS
 62
     7
 10
116.3008826843
 20
251.4352808935
 30
0.0
  0
VERTEX
  5
69E
  8
0
  6
CONTINUOUS
 62
     7
 10
116.9236916176
 20
251.2945126039
 30
0.0
  0
VERTEX
  5
69F
  8
0
  6
CONTINUOUS
 62
     7
 10
117.573656427
 20
251.1946748239
 30
0.0
  0
SEQEND
  5
87E
  8
0
  6
CONTINUOUS
 62
     7
  0
POLYLINE
  5
D6
  8
0
  6
CONTINUOUS
 62
     7
 66
     1
 10
0.0
 20
0.0
 30
0.0
  0
VERTEX
  5
6A0
  8
0
  6
CONTINUOUS
 62
     7
 10
111.4850181213
 20
254.5725058061
 30
0.0
  0
VERTEX
  5
6A1
  8
0
  6
CONTINUOUS
 62
     7
 10
111.5133362881
 20
254.8688422185
 30
0.0
  0
VERTEX
  5
6A2
  8
0
  6
CONTINUOUS
 62
     7
 10
111.5291613213
 20
254.993517254
 30
0.0
  0
SEQEND
  5
87D
  8
0
  6
CONTINUOUS
 62
     7
  0
POLYLINE
  5
D7
  8
0
  6
CONTINUOUS
 62
     7
 66
     1
 10
0.0
 20
0.0
 30
0.0
  0
VERTEX
  5
6A3
  8
0
  6
CONTINUOUS
 62
     7
 10
111.5745323769
 20
255.09150729
 30
0.0
  0
VERTEX
  5
6A4
  8
0
  6
CONTINUOUS
 62
     7
 10
111.5846413246
 20
255.136151169
 30
0.0
  0
VERTEX
  5
6A5
  8
0
  6
CONTINUOUS
 62
     7
 10
111.6306322685
 20
255.2418659669
 30
0.0
  0
VERTEX
  5
6A6
  8
0
  6
CONTINUOUS
 62
     7
 10
111.6284745804
 20
255.2887271387
 30
0.0
  0
VERTEX
  5
6A7
  8
0
  6
CONTINUOUS
 62
     7
 10
111.6013723484
 20
255.3415785772
 30
0.0
  0
VERTEX
  5
6A8
  8
0
  6
CONTINUOUS
 62
     7
 10
111.5982073418
 20
255.3991328222
 30
0.0
  0
VERTEX
  5
6A9
  8
0
  6
CONTINUOUS
 62
     7
 10
111.6799551121
 20
255.4575632555
 30
0.0
  0
VERTEX
  5
6AA
  8
0
  6
CONTINUOUS
 62
     7
 10
111.8947106472
 20
255.5141757471
 30
0.0
  0
VERTEX
  5
6AB
  8
0
  6
CONTINUOUS
 62
     7
 10
112.252237188
 20
255.5699060899
 30
0.0
  0
VERTEX
  5
6AC
  8
0
  6
CONTINUOUS
 62
     7
 10
112.8534096352
 20
255.6244443399
 30
0.0
  0
VERTEX
  5
6AD
  8
0
  6
CONTINUOUS
 62
     7
 10
113.7704747787
 20
255.6792567712
 30
0.0
  0
SEQEND
  5
87C
  8
0
  6
CONTINUOUS
 62
     7
  0
LINE
  5
D8
  8
0
  6
CONTINUOUS
 62
     7
 10
186.576818215
 20
254.1143070203
 30
0.0
 11
186.576818215
 21
254.4200073225
 31
0.0
  0
LINE
  5
D9
  8
0
  6
CONTINUOUS
 62
     7
 10
111.3768178097
 20
253.9392600996
 30
0.0
 11
111.3768178097
 21
253.7647973043
 31
0.0
  0
LINE
  5
DA
  8
0
  6
CONTINUOUS
 62
     7
 10
111.3768178097
 20
254.4098149282
 30
0.0
 11
111.3768178097
 21
254.1143070203
 31
0.0
  0
LINE
  5
DB
  8
0
  6
CONTINUOUS
 62
     7
 10
112.0768207184
 20
251.0673533422
 30
0.0
 11
112.0768207184
 21
252.3788939458
 31
0.0
  0
ARC
  5
DC
  8
0
  6
CONTINUOUS
 62
     7
 10
112.2768189064
 20
252.3185077767
 30
0.0
 40
1.00000000000001
 50
138.1768700679
 51
180.0
  0
LINE
  5
DD
  8
0
  6
CONTINUOUS
 62
     7
 10
111.2768190971
 20
252.3185084802
 30
0.0
 11
111.2768190971
 21
251.0673533422
 31
0.0
  0
LINE
  5
DE
  8
0
  6
CONTINUOUS
 62
     7
 10
112.0768207184
 20
251.0673533422
 30
0.0
 11
112.0768207184
 21
249.1026471597
 31
0.0
  0
LINE
  5
DF
  8
0
  6
CONTINUOUS
 62
     7
 10
111.2768190971
 20
249.1026471597
 30
0.0
 11
111.2768190971
 21
251.0673533422
 31
0.0
  0
LINE
  5
E0
  8
0
  6
CONTINUOUS
 62
     7
 10
112.0768207184
 20
249.1026471597
 30
0.0
 11
112.0768207184
 21
243.2803939325
 31
0.0
  0
LINE
  5
E1
  8
0
  6
CONTINUOUS
 62
     7
 10
111.2768190971
 20
243.2803939325
 30
0.0
 11
111.2768190971
 21
249.1026471597
 31
0.0
  0
LINE
  5
E2
  8
0
  6
CONTINUOUS
 62
     7
 10
112.0768207184
 20
243.0158029539
 30
0.0
 11
112.0768207184
 21
243.2803939325
 31
0.0
  0
LINE
  5
E3
  8
0
  6
CONTINUOUS
 62
     7
 10
111.2768190971
 20
243.2803939325
 30
0.0
 11
111.2768190971
 21
243.0158029539
 31
0.0
  0
LINE
  5
E4
  8
0
  6
CONTINUOUS
 62
     7
 10
112.0768207184
 20
243.0158029539
 30
0.0
 11
112.0768207184
 21
241.1234329683
 31
0.0
  0
LINE
  5
E5
  8
0
  6
CONTINUOUS
 62
     7
 10
111.2768190971
 20
241.1234329683
 30
0.0
 11
111.2768190971
 21
243.0158029539
 31
0.0
  0
LINE
  5
E6
  8
0
  6
CONTINUOUS
 62
     7
 10
112.0768207184
 20
241.1234329683
 30
0.0
 11
112.0768207184
 21
237.7114604455
 31
0.0
  0
LINE
  5
E7
  8
0
  6
CONTINUOUS
 62
     7
 10
111.2768190971
 20
237.7114604455
 30
0.0
 11
111.2768190971
 21
241.1234329683
 31
0.0
  0
LINE
  5
E8
  8
0
  6
CONTINUOUS
 62
     7
 10
112.0768207184
 20
233.8157247049
 30
0.0
 11
111.2768190971
 21
233.8157247049
 31
0.0
  0
LINE
  5
E9
  8
0
  6
CONTINUOUS
 62
     7
 10
112.0768207184
 20
235.8157227975
 30
0.0
 11
112.0768207184
 21
233.8157247049
 31
0.0
  0
LINE
  5
EA
  8
0
  6
CONTINUOUS
 62
     7
 10
111.2768190971
 20
233.8157247049
 30
0.0
 11
111.2768190971
 21
235.8157227975
 31
0.0
  0
LINE
  5
EB
  8
0
  6
CONTINUOUS
 62
     7
 10
112.0768207184
 20
237.7114604455
 30
0.0
 11
112.0768207184
 21
235.8157227975
 31
0.0
  0
LINE
  5
EC
  8
0
  6
CONTINUOUS
 62
     7
 10
111.2768190971
 20
235.8157227975
 30
0.0
 11
111.2768190971
 21
237.7114604455
 31
0.0
  0
LINE
  5
ED
  8
0
  6
CONTINUOUS
 62
     7
 10
106.4768212906
 20
236.6157244188
 30
0.0
 11
106.4768212906
 21
229.2157243234
 31
0.0
  0
LINE
  5
EE
  8
0
  6
CONTINUOUS
 62
     7
 10
116.4768177143
 20
236.6157244188
 30
0.0
 11
116.4768177143
 21
229.2157243234
 31
0.0
  0
LINE
  5
EF
  8
0
  6
CONTINUOUS
 62
     7
 10
114.4768196217
 20
227.2157202703
 30
0.0
 11
108.4768193832
 21
227.2157202703
 31
0.0
  0
ARC
  5
F0
  8
0
  6
CONTINUOUS
 62
     7
 10
114.4768189064
 20
229.2157218439
 30
0.0
 40
2.000000000000028
 50
270.0
 51
0.0
  0
ARC
  5
F1
  8
0
  6
CONTINUOUS
 62
     7
 10
108.4768189064
 20
229.2157218439
 30
0.0
 40
2.000000000000028
 50
180.0
 51
270.0
  0
LINE
  5
F2
  8
0
  6
CONTINUOUS
 62
     7
 10
111.2768190971
 20
237.6157234651
 30
0.0
 11
106.4768212906
 21
237.6157234651
 31
0.0
  0
LINE
  5
F3
  8
0
  6
CONTINUOUS
 62
     7
 10
106.4768212906
 20
237.6157234651
 30
0.0
 11
106.4768212906
 21
236.6157244188
 31
0.0
  0
LINE
  5
F4
  8
0
  6
CONTINUOUS
 62
     7
 10
116.4768177143
 20
237.6157234651
 30
0.0
 11
112.0768207184
 21
237.6157234651
 31
0.0
  0
LINE
  5
F5
  8
0
  6
CONTINUOUS
 62
     7
 10
116.4768177143
 20
237.6157234651
 30
0.0
 11
116.4768177143
 21
236.6157244188
 31
0.0
  0
LINE
  5
F6
  8
0
  6
CONTINUOUS
 62
     7
 10
-7.9231721291
 20
251.0673533422
 30
0.0
 11
-7.9231721291
 21
252.3788939458
 31
0.0
  0
LINE
  5
F7
  8
0
  6
CONTINUOUS
 62
     7
 10
-8.7231856712
 20
252.3185084802
 30
0.0
 11
-8.7231856712
 21
251.0673533422
 31
0.0
  0
ARC
  5
F8
  8
0
  6
CONTINUOUS
 62
     7
 10
-7.7231810936
 20
252.3185077767
 30
0.0
 40
1.000000000000001
 50
138.1768700679
 51
180.0
  0
LINE
  5
F9
  8
0
  6
CONTINUOUS
 62
     7
 10
-7.9231721291
 20
251.0673533422
 30
0.0
 11
-7.9231721291
 21
249.1026471597
 31
0.0
  0
LINE
  5
FA
  8
0
  6
CONTINUOUS
 62
     7
 10
-8.7231856712
 20
249.1026471597
 30
0.0
 11
-8.7231856712
 21
251.0673533422
 31
0.0
  0
LINE
  5
FB
  8
0
  6
CONTINUOUS
 62
     7
 10
-7.9231721291
 20
249.1026471597
 30
0.0
 11
-7.9231721291
 21
243.2803939325
 31
0.0
  0
LINE
  5
FC
  8
0
  6
CONTINUOUS
 62
     7
 10
-8.7231856712
 20
243.2803939325
 30
0.0
 11
-8.7231856712
 21
249.1026471597
 31
0.0
  0
LINE
  5
FD
  8
0
  6
CONTINUOUS
 62
     7
 10
-7.9231721291
 20
243.0158029539
 30
0.0
 11
-7.9231721291
 21
243.2803939325
 31
0.0
  0
LINE
  5
FE
  8
0
  6
CONTINUOUS
 62
     7
 10
-8.7231856712
 20
243.2803939325
 30
0.0
 11
-8.7231856712
 21
243.0158029539
 31
0.0
  0
LINE
  5
FF
  8
0
  6
CONTINUOUS
 62
     7
 10
-7.9231721291
 20
243.0158029539
 30
0.0
 11
-7.9231721291
 21
241.1234329683
 31
0.0
  0
LINE
  5
100
  8
0
  6
CONTINUOUS
 62
     7
 10
-8.7231856712
 20
241.1234329683
 30
0.0
 11
-8.7231856712
 21
243.0158029539
 31
0.0
  0
LINE
  5
101
  8
0
  6
CONTINUOUS
 62
     7
 10
-7.9231721291
 20
241.1234329683
 30
0.0
 11
-7.9231721291
 21
237.7114604455
 31
0.0
  0
LINE
  5
102
  8
0
  6
CONTINUOUS
 62
     7
 10
-8.7231856712
 20
237.7114604455
 30
0.0
 11
-8.7231856712
 21
241.1234329683
 31
0.0
  0
LINE
  5
103
  8
0
  6
CONTINUOUS
 62
     7
 10
-7.9231721291
 20
237.7114604455
 30
0.0
 11
-7.9231721291
 21
235.8157227975
 31
0.0
  0
LINE
  5
104
  8
0
  6
CONTINUOUS
 62
     7
 10
-8.7231856712
 20
235.8157227975
 30
0.0
 11
-8.7231856712
 21
237.7114604455
 31
0.0
  0
LINE
  5
105
  8
0
  6
CONTINUOUS
 62
     7
 10
-7.9231721291
 20
233.8157247049
 30
0.0
 11
-8.7231856712
 21
233.8157247049
 31
0.0
  0
LINE
  5
106
  8
0
  6
CONTINUOUS
 62
     7
 10
-7.9231721291
 20
235.8157227975
 30
0.0
 11
-7.9231721291
 21
233.8157247049
 31
0.0
  0
LINE
  5
107
  8
0
  6
CONTINUOUS
 62
     7
 10
-8.7231856712
 20
233.8157247049
 30
0.0
 11
-8.7231856712
 21
235.8157227975
 31
0.0
  0
ARC
  5
108
  8
0
  6
CONTINUOUS
 62
     7
 10
-11.5231810936
 20
229.2157218439
 30
0.0
 40
2.000000000000028
 50
180.0
 51
270.0
  0
LINE
  5
109
  8
0
  6
CONTINUOUS
 62
     7
 10
-13.5231715569
 20
236.6157244188
 30
0.0
 11
-13.5231715569
 21
229.2157243234
 31
0.0
  0
LINE
  5
10A
  8
0
  6
CONTINUOUS
 62
     7
 10
-3.5231810936
 20
236.6157244188
 30
0.0
 11
-3.5231810936
 21
229.2157243234
 31
0.0
  0
ARC
  5
10B
  8
0
  6
CONTINUOUS
 62
     7
 10
-5.5231810936
 20
229.2157218439
 30
0.0
 40
2.000000000000028
 50
270.0
 51
0.0
  0
LINE
  5
10C
  8
0
  6
CONTINUOUS
 62
     7
 10
-5.5231791862
 20
227.2157202703
 30
0.0
 11
-11.5231734642
 21
227.2157202703
 31
0.0
  0
LINE
  5
10D
  8
0
  6
CONTINUOUS
 62
     7
 10
-3.5231810936
 20
237.6157234651
 30
0.0
 11
-7.9231721291
 21
237.6157234651
 31
0.0
  0
LINE
  5
10E
  8
0
  6
CONTINUOUS
 62
     7
 10
-3.5231810936
 20
237.6157234651
 30
0.0
 11
-3.5231810936
 21
236.6157244188
 31
0.0
  0
LINE
  5
10F
  8
0
  6
CONTINUOUS
 62
     7
 10
-8.7231856712
 20
237.6157234651
 30
0.0
 11
-13.5231715569
 21
237.6157234651
 31
0.0
  0
LINE
  5
110
  8
0
  6
CONTINUOUS
 62
     7
 10
-13.5231715569
 20
237.6157234651
 30
0.0
 11
-13.5231715569
 21
236.6157244188
 31
0.0
  0
LINE
  5
111
  8
0
  6
CONTINUOUS
 62
     7
 10
352.0768183342
 20
251.0673533422
 30
0.0
 11
352.0768183342
 21
249.1026471597
 31
0.0
  0
LINE
  5
112
  8
0
  6
CONTINUOUS
 62
     7
 10
351.276816713
 20
249.1026471597
 30
0.0
 11
351.276816713
 21
251.0673533422
 31
0.0
  0
LINE
  5
113
  8
0
  6
CONTINUOUS
 62
     7
 10
352.0768183342
 20
251.0673533422
 30
0.0
 11
352.0768183342
 21
252.3788939458
 31
0.0
  0
LINE
  5
114
  8
0
  6
CONTINUOUS
 62
     7
 10
351.276816713
 20
252.3185084802
 30
0.0
 11
351.276816713
 21
251.0673533422
 31
0.0
  0
ARC
  5
115
  8
0
  6
CONTINUOUS
 62
     7
 10
352.2768189064
 20
252.3185077767
 30
0.0
 40
1.0
 50
138.1768700679
 51
180.0
  0
LINE
  5
116
  8
0
  6
CONTINUOUS
 62
     7
 10
352.0768183342
 20
249.1026471597
 30
0.0
 11
352.0768183342
 21
243.2803939325
 31
0.0
  0
LINE
  5
117
  8
0
  6
CONTINUOUS
 62
     7
 10
351.276816713
 20
243.2803939325
 30
0.0
 11
351.276816713
 21
249.1026471597
 31
0.0
  0
LINE
  5
118
  8
0
  6
CONTINUOUS
 62
     7
 10
352.0768183342
 20
243.0158029539
 30
0.0
 11
352.0768183342
 21
243.2803939325
 31
0.0
  0
LINE
  5
119
  8
0
  6
CONTINUOUS
 62
     7
 10
351.276816713
 20
243.2803939325
 30
0.0
 11
351.276816713
 21
243.0158029539
 31
0.0
  0
LINE
  5
11A
  8
0
  6
CONTINUOUS
 62
     7
 10
352.0768183342
 20
243.0158029539
 30
0.0
 11
352.0768183342
 21
241.1234329683
 31
0.0
  0
LINE
  5
11B
  8
0
  6
CONTINUOUS
 62
     7
 10
351.276816713
 20
241.1234329683
 30
0.0
 11
351.276816713
 21
243.0158029539
 31
0.0
  0
LINE
  5
11C
  8
0
  6
CONTINUOUS
 62
     7
 10
352.0768183342
 20
241.1234329683
 30
0.0
 11
352.0768183342
 21
237.7114604455
 31
0.0
  0
LINE
  5
11D
  8
0
  6
CONTINUOUS
 62
     7
 10
351.276816713
 20
237.7114604455
 30
0.0
 11
351.276816713
 21
241.1234329683
 31
0.0
  0
LINE
  5
11E
  8
0
  6
CONTINUOUS
 62
     7
 10
352.0768183342
 20
237.7114604455
 30
0.0
 11
352.0768183342
 21
235.8157227975
 31
0.0
  0
LINE
  5
11F
  8
0
  6
CONTINUOUS
 62
     7
 10
351.276816713
 20
235.8157227975
 30
0.0
 11
351.276816713
 21
237.7114604455
 31
0.0
  0
LINE
  5
120
  8
0
  6
CONTINUOUS
 62
     7
 10
352.0768183342
 20
233.8157247049
 30
0.0
 11
351.276816713
 21
233.8157247049
 31
0.0
  0
LINE
  5
121
  8
0
  6
CONTINUOUS
 62
     7
 10
352.0768183342
 20
235.8157227975
 30
0.0
 11
352.0768183342
 21
233.8157247049
 31
0.0
  0
LINE
  5
122
  8
0
  6
CONTINUOUS
 62
     7
 10
351.276816713
 20
233.8157247049
 30
0.0
 11
351.276816713
 21
235.8157227975
 31
0.0
  0
ARC
  5
123
  8
0
  6
CONTINUOUS
 62
     7
 10
348.4768189064
 20
229.2157218439
 30
0.0
 40
2.000000000000028
 50
180.0
 51
270.0
  0
LINE
  5
124
  8
0
  6
CONTINUOUS
 62
     7
 10
346.4768189064
 20
236.6157244188
 30
0.0
 11
346.4768189064
 21
229.2157243234
 31
0.0
  0
LINE
  5
125
  8
0
  6
CONTINUOUS
 62
     7
 10
356.4768212906
 20
236.6157244188
 30
0.0
 11
356.4768212906
 21
229.2157243234
 31
0.0
  0
ARC
  5
126
  8
0
  6
CONTINUOUS
 62
     7
 10
354.4768189064
 20
229.2157218439
 30
0.0
 40
2.000000000000028
 50
270.0
 51
0.0
  0
LINE
  5
127
  8
0
  6
CONTINUOUS
 62
     7
 10
354.4768231979
 20
227.2157202703
 30
0.0
 11
348.4768169991
 21
227.2157202703
 31
0.0
  0
LINE
  5
128
  8
0
  6
CONTINUOUS
 62
     7
 10
356.4768212906
 20
237.6157234651
 30
0.0
 11
352.0768183342
 21
237.6157234651
 31
0.0
  0
LINE
  5
129
  8
0
  6
CONTINUOUS
 62
     7
 10
356.4768212906
 20
237.6157234651
 30
0.0
 11
356.4768212906
 21
236.6157244188
 31
0.0
  0
LINE
  5
12A
  8
0
  6
CONTINUOUS
 62
     7
 10
351.276816713
 20
237.6157234651
 30
0.0
 11
346.4768189064
 21
237.6157234651
 31
0.0
  0
LINE
  5
12B
  8
0
  6
CONTINUOUS
 62
     7
 10
346.4768189064
 20
237.6157234651
 30
0.0
 11
346.4768189064
 21
236.6157244188
 31
0.0
  0
LINE
  5
12C
  8
0
  6
CONTINUOUS
 62
     7
 10
231.2768193952
 20
249.1026471597
 30
0.0
 11
231.2768193952
 21
251.0673533422
 31
0.0
  0
LINE
  5
12D
  8
0
  6
CONTINUOUS
 62
     7
 10
232.0768195263
 20
251.0673533422
 30
0.0
 11
232.0768195263
 21
249.1026471597
 31
0.0
  0
LINE
  5
12E
  8
0
  6
CONTINUOUS
 62
     7
 10
231.2768193952
 20
252.3185084802
 30
0.0
 11
231.2768193952
 21
251.0673533422
 31
0.0
  0
ARC
  5
12F
  8
0
  6
CONTINUOUS
 62
     7
 10
232.2768189064
 20
252.3185077767
 30
0.0
 40
1.00000000000001
 50
138.1768700679
 51
180.0
  0
LINE
  5
130
  8
0
  6
CONTINUOUS
 62
     7
 10
232.0768195263
 20
251.0673533422
 30
0.0
 11
232.0768195263
 21
252.3788939458
 31
0.0
  0
LINE
  5
131
  8
0
  6
CONTINUOUS
 62
     7
 10
231.2768193952
 20
243.2803939325
 30
0.0
 11
231.2768193952
 21
249.1026471597
 31
0.0
  0
LINE
  5
132
  8
0
  6
CONTINUOUS
 62
     7
 10
232.0768195263
 20
249.1026471597
 30
0.0
 11
232.0768195263
 21
243.2803939325
 31
0.0
  0
LINE
  5
133
  8
0
  6
CONTINUOUS
 62
     7
 10
231.2768193952
 20
243.2803939325
 30
0.0
 11
231.2768193952
 21
243.0158029539
 31
0.0
  0
LINE
  5
134
  8
0
  6
CONTINUOUS
 62
     7
 10
232.0768195263
 20
243.0158029539
 30
0.0
 11
232.0768195263
 21
243.2803939325
 31
0.0
  0
LINE
  5
135
  8
0
  6
CONTINUOUS
 62
     7
 10
231.2768193952
 20
241.1234329683
 30
0.0
 11
231.2768193952
 21
243.0158029539
 31
0.0
  0
LINE
  5
136
  8
0
  6
CONTINUOUS
 62
     7
 10
232.0768195263
 20
243.0158029539
 30
0.0
 11
232.0768195263
 21
241.1234329683
 31
0.0
  0
LINE
  5
137
  8
0
  6
CONTINUOUS
 62
     7
 10
231.2768193952
 20
237.7114604455
 30
0.0
 11
231.2768193952
 21
241.1234329683
 31
0.0
  0
LINE
  5
138
  8
0
  6
CONTINUOUS
 62
     7
 10
232.0768195263
 20
241.1234329683
 30
0.0
 11
232.0768195263
 21
237.7114604455
 31
0.0
  0
LINE
  5
139
  8
0
  6
CONTINUOUS
 62
     7
 10
232.0768195263
 20
233.8157247049
 30
0.0
 11
231.2768193952
 21
233.8157247049
 31
0.0
  0
LINE
  5
13A
  8
0
  6
CONTINUOUS
 62
     7
 10
231.2768193952
 20
233.8157247049
 30
0.0
 11
231.2768193952
 21
235.8157227975
 31
0.0
  0
LINE
  5
13B
  8
0
  6
CONTINUOUS
 62
     7
 10
232.0768195263
 20
235.8157227975
 30
0.0
 11
232.0768195263
 21
233.8157247049
 31
0.0
  0
LINE
  5
13C
  8
0
  6
CONTINUOUS
 62
     7
 10
231.2768193952
 20
235.8157227975
 30
0.0
 11
231.2768193952
 21
237.7114604455
 31
0.0
  0
LINE
  5
13D
  8
0
  6
CONTINUOUS
 62
     7
 10
232.0768195263
 20
237.7114604455
 30
0.0
 11
232.0768195263
 21
235.8157227975
 31
0.0
  0
ARC
  5
13E
  8
0
  6
CONTINUOUS
 62
     7
 10
228.4768189064
 20
229.2157218439
 30
0.0
 40
2.000000000000028
 50
180.0
 51
270.0
  0
LINE
  5
13F
  8
0
  6
CONTINUOUS
 62
     7
 10
226.4768186084
 20
236.6157244188
 30
0.0
 11
226.4768186084
 21
229.2157243234
 31
0.0
  0
LINE
  5
140
  8
0
  6
CONTINUOUS
 62
     7
 10
236.4768195025
 20
236.6157244188
 30
0.0
 11
236.4768195025
 21
229.2157243234
 31
0.0
  0
LINE
  5
141
  8
0
  6
CONTINUOUS
 62
     7
 10
234.4768184296
 20
227.2157202703
 30
0.0
 11
228.4768181911
 21
227.2157202703
 31
0.0
  0
ARC
  5
142
  8
0
  6
CONTINUOUS
 62
     7
 10
234.4768189064
 20
229.2157218439
 30
0.0
 40
2.000000000000028
 50
270.0
 51
0.0
  0
LINE
  5
143
  8
0
  6
CONTINUOUS
 62
     7
 10
236.4768195025
 20
237.6157234651
 30
0.0
 11
232.0768195263
 21
237.6157234651
 31
0.0
  0
LINE
  5
144
  8
0
  6
CONTINUOUS
 62
     7
 10
236.4768195025
 20
237.6157234651
 30
0.0
 11
236.4768195025
 21
236.6157244188
 31
0.0
  0
LINE
  5
145
  8
0
  6
CONTINUOUS
 62
     7
 10
231.2768193952
 20
237.6157234651
 30
0.0
 11
226.4768186084
 21
237.6157234651
 31
0.0
  0
LINE
  5
146
  8
0
  6
CONTINUOUS
 62
     7
 10
226.4768186084
 20
237.6157234651
 30
0.0
 11
226.4768186084
 21
236.6157244188
 31
0.0
  0
ARC
  5
147
  8
0
  6
CONTINUOUS
 62
     7
 10
305.6768189064
 20
252.3185077767
 30
0.0
 40
1.0
 50
0.0
 51
42.187202839
  0
LINE
  5
148
  8
0
  6
CONTINUOUS
 62
     7
 10
306.6768187157
 20
252.3185084802
 30
0.0
 11
306.6768187157
 21
251.0673533422
 31
0.0
  0
LINE
  5
149
  8
0
  6
CONTINUOUS
 62
     7
 10
305.8768170944
 20
251.0673533422
 30
0.0
 11
305.8768170944
 21
252.371145342
 31
0.0
  0
LINE
  5
14A
  8
0
  6
CONTINUOUS
 62
     7
 10
306.6768187157
 20
249.1026471597
 30
0.0
 11
306.6768187157
 21
251.0673533422
 31
0.0
  0
LINE
  5
14B
  8
0
  6
CONTINUOUS
 62
     7
 10
305.8768170944
 20
251.0673533422
 30
0.0
 11
305.8768170944
 21
249.1026471597
 31
0.0
  0
LINE
  5
14C
  8
0
  6
CONTINUOUS
 62
     7
 10
306.6768187157
 20
243.2803939325
 30
0.0
 11
306.6768187157
 21
249.1026471597
 31
0.0
  0
LINE
  5
14D
  8
0
  6
CONTINUOUS
 62
     7
 10
305.8768170944
 20
249.1026471597
 30
0.0
 11
305.8768170944
 21
243.2803939325
 31
0.0
  0
LINE
  5
14E
  8
0
  6
CONTINUOUS
 62
     7
 10
306.6768187157
 20
243.2803939325
 30
0.0
 11
306.6768187157
 21
243.0158029539
 31
0.0
  0
LINE
  5
14F
  8
0
  6
CONTINUOUS
 62
     7
 10
305.8768170944
 20
243.0158029539
 30
0.0
 11
305.8768170944
 21
243.2803939325
 31
0.0
  0
LINE
  5
150
  8
0
  6
CONTINUOUS
 62
     7
 10
306.6768187157
 20
241.1234329683
 30
0.0
 11
306.6768187157
 21
243.0158029539
 31
0.0
  0
LINE
  5
151
  8
0
  6
CONTINUOUS
 62
     7
 10
305.8768170944
 20
243.0158029539
 30
0.0
 11
305.8768170944
 21
241.1234329683
 31
0.0
  0
LINE
  5
152
  8
0
  6
CONTINUOUS
 62
     7
 10
306.6768187157
 20
237.7114604455
 30
0.0
 11
306.6768187157
 21
241.1234329683
 31
0.0
  0
LINE
  5
153
  8
0
  6
CONTINUOUS
 62
     7
 10
305.8768170944
 20
241.1234329683
 30
0.0
 11
305.8768170944
 21
237.7114604455
 31
0.0
  0
LINE
  5
154
  8
0
  6
CONTINUOUS
 62
     7
 10
305.8768170944
 20
233.8157247049
 30
0.0
 11
306.6768187157
 21
233.8157247049
 31
0.0
  0
LINE
  5
155
  8
0
  6
CONTINUOUS
 62
     7
 10
306.6768187157
 20
233.8157247049
 30
0.0
 11
306.6768187157
 21
235.8157227975
 31
0.0
  0
LINE
  5
156
  8
0
  6
CONTINUOUS
 62
     7
 10
305.8768170944
 20
235.8157227975
 30
0.0
 11
305.8768170944
 21
233.8157247049
 31
0.0
  0
LINE
  5
157
  8
0
  6
CONTINUOUS
 62
     7
 10
306.6768187157
 20
235.8157227975
 30
0.0
 11
306.6768187157
 21
237.7114604455
 31
0.0
  0
LINE
  5
158
  8
0
  6
CONTINUOUS
 62
     7
 10
305.8768170944
 20
237.7114604455
 30
0.0
 11
305.8768170944
 21
235.8157227975
 31
0.0
  0
ARC
  5
159
  8
0
  6
CONTINUOUS
 62
     7
 10
303.4768189064
 20
229.2157218439
 30
0.0
 40
2.000000000000028
 50
180.0
 51
270.0
  0
LINE
  5
15A
  8
0
  6
CONTINUOUS
 62
     7
 10
301.4768200985
 20
236.6157244188
 30
0.0
 11
301.4768200985
 21
229.2157243234
 31
0.0
  0
LINE
  5
15B
  8
0
  6
CONTINUOUS
 62
     7
 10
311.4768165222
 20
236.6157244188
 30
0.0
 11
311.4768165222
 21
229.2157243234
 31
0.0
  0
ARC
  5
15C
  8
0
  6
CONTINUOUS
 62
     7
 10
309.4768189064
 20
229.2157218439
 30
0.0
 40
2.000000000000028
 50
270.0
 51
0.0
  0
LINE
  5
15D
  8
0
  6
CONTINUOUS
 62
     7
 10
303.4768181911
 20
227.2157202703
 30
0.0
 11
309.4768184296
 21
227.2157202703
 31
0.0
  0
LINE
  5
15E
  8
0
  6
CONTINUOUS
 62
     7
 10
301.4768200985
 20
237.6157234651
 30
0.0
 11
305.8768170944
 21
237.6157234651
 31
0.0
  0
LINE
  5
15F
  8
0
  6
CONTINUOUS
 62
     7
 10
301.4768200985
 20
237.6157234651
 30
0.0
 11
301.4768200985
 21
236.6157244188
 31
0.0
  0
LINE
  5
160
  8
0
  6
CONTINUOUS
 62
     7
 10
306.6768187157
 20
237.6157234651
 30
0.0
 11
311.4768165222
 21
237.6157234651
 31
0.0
  0
LINE
  5
161
  8
0
  6
CONTINUOUS
 62
     7
 10
311.4768165222
 20
237.6157234651
 30
0.0
 11
311.4768165222
 21
236.6157244188
 31
0.0
  0
LINE
  5
162
  8
0
  6
CONTINUOUS
 62
     7
 10
185.8768182865
 20
251.0673533422
 30
0.0
 11
185.8768182865
 21
249.1026471597
 31
0.0
  0
LINE
  5
163
  8
0
  6
CONTINUOUS
 62
     7
 10
186.6768184176
 20
249.1026471597
 30
0.0
 11
186.6768184176
 21
251.0673533422
 31
0.0
  0
LINE
  5
164
  8
0
  6
CONTINUOUS
 62
     7
 10
186.6768184176
 20
252.3185084802
 30
0.0
 11
186.6768184176
 21
251.0673533422
 31
0.0
  0
ARC
  5
165
  8
0
  6
CONTINUOUS
 62
     7
 10
185.6768189064
 20
252.3185077767
 30
0.0
 40
1.000000000000013
 50
0.0
 51
42.187202839
  0
LINE
  5
166
  8
0
  6
CONTINUOUS
 62
     7
 10
185.8768182865
 20
251.0673533422
 30
0.0
 11
185.8768182865
 21
252.371145342
 31
0.0
  0
LINE
  5
167
  8
0
  6
CONTINUOUS
 62
     7
 10
186.6768184176
 20
243.2803939325
 30
0.0
 11
186.6768184176
 21
249.1026471597
 31
0.0
  0
LINE
  5
168
  8
0
  6
CONTINUOUS
 62
     7
 10
185.8768182865
 20
249.1026471597
 30
0.0
 11
185.8768182865
 21
243.2803939325
 31
0.0
  0
LINE
  5
169
  8
0
  6
CONTINUOUS
 62
     7
 10
186.6768184176
 20
243.2803939325
 30
0.0
 11
186.6768184176
 21
243.0158029539
 31
0.0
  0
LINE
  5
16A
  8
0
  6
CONTINUOUS
 62
     7
 10
185.8768182865
 20
243.0158029539
 30
0.0
 11
185.8768182865
 21
243.2803939325
 31
0.0
  0
LINE
  5
16B
  8
0
  6
CONTINUOUS
 62
     7
 10
186.6768184176
 20
241.1234329683
 30
0.0
 11
186.6768184176
 21
243.0158029539
 31
0.0
  0
LINE
  5
16C
  8
0
  6
CONTINUOUS
 62
     7
 10
185.8768182865
 20
243.0158029539
 30
0.0
 11
185.8768182865
 21
241.1234329683
 31
0.0
  0
LINE
  5
16D
  8
0
  6
CONTINUOUS
 62
     7
 10
186.6768184176
 20
237.7114604455
 30
0.0
 11
186.6768184176
 21
241.1234329683
 31
0.0
  0
LINE
  5
16E
  8
0
  6
CONTINUOUS
 62
     7
 10
185.8768182865
 20
241.1234329683
 30
0.0
 11
185.8768182865
 21
237.7114604455
 31
0.0
  0
LINE
  5
16F
  8
0
  6
CONTINUOUS
 62
     7
 10
185.8768182865
 20
233.8157247049
 30
0.0
 11
186.6768184176
 21
233.8157247049
 31
0.0
  0
LINE
  5
170
  8
0
  6
CONTINUOUS
 62
     7
 10
186.6768184176
 20
233.8157247049
 30
0.0
 11
186.6768184176
 21
235.8157227975
 31
0.0
  0
LINE
  5
171
  8
0
  6
CONTINUOUS
 62
     7
 10
185.8768182865
 20
235.8157227975
 30
0.0
 11
185.8768182865
 21
233.8157247049
 31
0.0
  0
LINE
  5
172
  8
0
  6
CONTINUOUS
 62
     7
 10
186.6768184176
 20
235.8157227975
 30
0.0
 11
186.6768184176
 21
237.7114604455
 31
0.0
  0
LINE
  5
173
  8
0
  6
CONTINUOUS
 62
     7
 10
185.8768182865
 20
237.7114604455
 30
0.0
 11
185.8768182865
 21
235.8157227975
 31
0.0
  0
ARC
  5
174
  8
0
  6
CONTINUOUS
 62
     7
 10
183.4768189064
 20
229.2157218439
 30
0.0
 40
2.000000000000028
 50
180.0
 51
270.0
  0
LINE
  5
175
  8
0
  6
CONTINUOUS
 62
     7
 10
181.4768183104
 20
236.6157244188
 30
0.0
 11
181.4768183104
 21
229.2157243234
 31
0.0
  0
LINE
  5
176
  8
0
  6
CONTINUOUS
 62
     7
 10
191.4768192044
 20
236.6157244188
 30
0.0
 11
191.4768192044
 21
229.2157243234
 31
0.0
  0
ARC
  5
177
  8
0
  6
CONTINUOUS
 62
     7
 10
189.4768189064
 20
229.2157218439
 30
0.0
 40
2.000000000000028
 50
270.0
 51
0.0
  0
LINE
  5
178
  8
0
  6
CONTINUOUS
 62
     7
 10
183.4768193832
 20
227.2157202703
 30
0.0
 11
189.4768196217
 21
227.2157202703
 31
0.0
  0
LINE
  5
179
  8
0
  6
CONTINUOUS
 62
     7
 10
181.4768183104
 20
237.6157234651
 30
0.0
 11
185.8768182865
 21
237.6157234651
 31
0.0
  0
LINE
  5
17A
  8
0
  6
CONTINUOUS
 62
     7
 10
181.4768183104
 20
237.6157234651
 30
0.0
 11
181.4768183104
 21
236.6157244188
 31
0.0
  0
LINE
  5
17B
  8
0
  6
CONTINUOUS
 62
     7
 10
186.6768184176
 20
237.6157234651
 30
0.0
 11
191.4768192044
 21
237.6157234651
 31
0.0
  0
LINE
  5
17C
  8
0
  6
CONTINUOUS
 62
     7
 10
191.4768192044
 20
237.6157234651
 30
0.0
 11
191.4768192044
 21
236.6157244188
 31
0.0
  0
LINE
  5
17D
  8
0
  6
CONTINUOUS
 62
     7
 10
65.8768194786
 20
251.0673533422
 30
0.0
 11
65.8768194786
 21
249.1026471597
 31
0.0
  0
LINE
  5
17E
  8
0
  6
CONTINUOUS
 62
     7
 10
66.6768210999
 20
249.1026471597
 30
0.0
 11
66.6768210999
 21
251.0673533422
 31
0.0
  0
ARC
  5
17F
  8
0
  6
CONTINUOUS
 62
     7
 10
65.6768189064
 20
252.3185077767
 30
0.0
 40
1.0
 50
0.0
 51
42.187202839
  0
LINE
  5
180
  8
0
  6
CONTINUOUS
 62
     7
 10
65.8768194786
 20
251.0673533422
 30
0.0
 11
65.8768194786
 21
252.371145342
 31
0.0
  0
LINE
  5
181
  8
0
  6
CONTINUOUS
 62
     7
 10
66.6768210999
 20
252.3185084802
 30
0.0
 11
66.6768210999
 21
251.0673533422
 31
0.0
  0
LINE
  5
182
  8
0
  6
CONTINUOUS
 62
     7
 10
65.8768194786
 20
249.1026471597
 30
0.0
 11
65.8768194786
 21
243.2803939325
 31
0.0
  0
LINE
  5
183
  8
0
  6
CONTINUOUS
 62
     7
 10
66.6768210999
 20
243.2803939325
 30
0.0
 11
66.6768210999
 21
249.1026471597
 31
0.0
  0
LINE
  5
184
  8
0
  6
CONTINUOUS
 62
     7
 10
65.8768194786
 20
243.0158029539
 30
0.0
 11
65.8768194786
 21
243.2803939325
 31
0.0
  0
LINE
  5
185
  8
0
  6
CONTINUOUS
 62
     7
 10
66.6768210999
 20
243.2803939325
 30
0.0
 11
66.6768210999
 21
243.0158029539
 31
0.0
  0
LINE
  5
186
  8
0
  6
CONTINUOUS
 62
     7
 10
65.8768194786
 20
243.0158029539
 30
0.0
 11
65.8768194786
 21
241.1234329683
 31
0.0
  0
LINE
  5
187
  8
0
  6
CONTINUOUS
 62
     7
 10
66.6768210999
 20
241.1234329683
 30
0.0
 11
66.6768210999
 21
243.0158029539
 31
0.0
  0
LINE
  5
188
  8
0
  6
CONTINUOUS
 62
     7
 10
65.8768194786
 20
241.1234329683
 30
0.0
 11
65.8768194786
 21
237.7114604455
 31
0.0
  0
LINE
  5
189
  8
0
  6
CONTINUOUS
 62
     7
 10
66.6768210999
 20
237.7114604455
 30
0.0
 11
66.6768210999
 21
241.1234329683
 31
0.0
  0
LINE
  5
18A
  8
0
  6
CONTINUOUS
 62
     7
 10
65.8768194786
 20
233.8157247049
 30
0.0
 11
66.6768210999
 21
233.8157247049
 31
0.0
  0
LINE
  5
18B
  8
0
  6
CONTINUOUS
 62
     7
 10
65.8768194786
 20
235.8157227975
 30
0.0
 11
65.8768194786
 21
233.8157247049
 31
0.0
  0
LINE
  5
18C
  8
0
  6
CONTINUOUS
 62
     7
 10
66.6768210999
 20
233.8157247049
 30
0.0
 11
66.6768210999
 21
235.8157227975
 31
0.0
  0
LINE
  5
18D
  8
0
  6
CONTINUOUS
 62
     7
 10
65.8768194786
 20
237.7114604455
 30
0.0
 11
65.8768194786
 21
235.8157227975
 31
0.0
  0
LINE
  5
18E
  8
0
  6
CONTINUOUS
 62
     7
 10
66.6768210999
 20
235.8157227975
 30
0.0
 11
66.6768210999
 21
237.7114604455
 31
0.0
  0
ARC
  5
18F
  8
0
  6
CONTINUOUS
 62
     7
 10
63.4768189064
 20
229.2157218439
 30
0.0
 40
2.000000000000028
 50
180.0
 51
270.0
  0
LINE
  5
190
  8
0
  6
CONTINUOUS
 62
     7
 10
61.4768165222
 20
236.6157244188
 30
0.0
 11
61.4768165222
 21
229.2157243234
 31
0.0
  0
LINE
  5
191
  8
0
  6
CONTINUOUS
 62
     7
 10
71.4768189064
 20
236.6157244188
 30
0.0
 11
71.4768189064
 21
229.2157243234
 31
0.0
  0
ARC
  5
192
  8
0
  6
CONTINUOUS
 62
     7
 10
69.4768189064
 20
229.2157218439
 30
0.0
 40
2.000000000000028
 50
270.0
 51
0.0
  0
LINE
  5
193
  8
0
  6
CONTINUOUS
 62
     7
 10
63.4768146149
 20
227.2157202703
 30
0.0
 11
69.4768208138
 21
227.2157202703
 31
0.0
  0
LINE
  5
194
  8
0
  6
CONTINUOUS
 62
     7
 10
66.6768210999
 20
237.6157234651
 30
0.0
 11
71.4768189064
 21
237.6157234651
 31
0.0
  0
LINE
  5
195
  8
0
  6
CONTINUOUS
 62
     7
 10
71.4768189064
 20
237.6157234651
 30
0.0
 11
71.4768189064
 21
236.6157244188
 31
0.0
  0
LINE
  5
196
  8
0
  6
CONTINUOUS
 62
     7
 10
61.4768165222
 20
237.6157234651
 30
0.0
 11
65.8768194786
 21
237.6157234651
 31
0.0
  0
LINE
  5
197
  8
0
  6
CONTINUOUS
 62
     7
 10
61.4768165222
 20
237.6157234651
 30
0.0
 11
61.4768165222
 21
236.6157244188
 31
0.0
  0
LINE
  5
198
  8
0
  6
CONTINUOUS
 62
     7
 10
425.8768099419
 20
251.0673533422
 30
0.0
 11
425.8768099419
 21
249.1026471597
 31
0.0
  0
LINE
  5
199
  8
0
  6
CONTINUOUS
 62
     7
 10
426.676823484
 20
249.1026471597
 30
0.0
 11
426.676823484
 21
251.0673533422
 31
0.0
  0
LINE
  5
19A
  8
0
  6
CONTINUOUS
 62
     7
 10
426.676823484
 20
252.3185084802
 30
0.0
 11
426.676823484
 21
251.0673533422
 31
0.0
  0
LINE
  5
19B
  8
0
  6
CONTINUOUS
 62
     7
 10
425.8768099419
 20
251.0673533422
 30
0.0
 11
425.8768099419
 21
252.371145342
 31
0.0
  0
ARC
  5
19C
  8
0
  6
CONTINUOUS
 62
     7
 10
425.6768189064
 20
252.3185077767
 30
0.0
 40
1.000000000000009
 50
0.0
 51
42.1872028391
  0
LINE
  5
19D
  8
0
  6
CONTINUOUS
 62
     7
 10
425.8768099419
 20
249.1026471597
 30
0.0
 11
425.8768099419
 21
243.2803939325
 31
0.0
  0
LINE
  5
19E
  8
0
  6
CONTINUOUS
 62
     7
 10
426.676823484
 20
243.2803939325
 30
0.0
 11
426.676823484
 21
249.1026471597
 31
0.0
  0
LINE
  5
19F
  8
0
  6
CONTINUOUS
 62
     7
 10
425.8768099419
 20
243.0158029539
 30
0.0
 11
425.8768099419
 21
243.2803939325
 31
0.0
  0
LINE
  5
1A0
  8
0
  6
CONTINUOUS
 62
     7
 10
426.676823484
 20
243.2803939325
 30
0.0
 11
426.676823484
 21
243.0158029539
 31
0.0
  0
LINE
  5
1A1
  8
0
  6
CONTINUOUS
 62
     7
 10
425.8768099419
 20
243.0158029539
 30
0.0
 11
425.8768099419
 21
241.1234329683
 31
0.0
  0
LINE
  5
1A2
  8
0
  6
CONTINUOUS
 62
     7
 10
426.676823484
 20
241.1234329683
 30
0.0
 11
426.676823484
 21
243.0158029539
 31
0.0
  0
LINE
  5
1A3
  8
0
  6
CONTINUOUS
 62
     7
 10
425.8768099419
 20
241.1234329683
 30
0.0
 11
425.8768099419
 21
237.7114604455
 31
0.0
  0
LINE
  5
1A4
  8
0
  6
CONTINUOUS
 62
     7
 10
426.676823484
 20
237.7114604455
 30
0.0
 11
426.676823484
 21
241.1234329683
 31
0.0
  0
LINE
  5
1A5
  8
0
  6
CONTINUOUS
 62
     7
 10
425.8768099419
 20
237.7114604455
 30
0.0
 11
425.8768099419
 21
235.8157227975
 31
0.0
  0
LINE
  5
1A6
  8
0
  6
CONTINUOUS
 62
     7
 10
426.676823484
 20
235.8157227975
 30
0.0
 11
426.676823484
 21
237.7114604455
 31
0.0
  0
LINE
  5
1A7
  8
0
  6
CONTINUOUS
 62
     7
 10
425.8768099419
 20
233.8157247049
 30
0.0
 11
426.676823484
 21
233.8157247049
 31
0.0
  0
LINE
  5
1A8
  8
0
  6
CONTINUOUS
 62
     7
 10
425.8768099419
 20
235.8157227975
 30
0.0
 11
425.8768099419
 21
233.8157247049
 31
0.0
  0
LINE
  5
1A9
  8
0
  6
CONTINUOUS
 62
     7
 10
426.676823484
 20
233.8157247049
 30
0.0
 11
426.676823484
 21
235.8157227975
 31
0.0
  0
LINE
  5
1AA
  8
0
  6
CONTINUOUS
 62
     7
 10
421.4768189064
 20
236.6157244188
 30
0.0
 11
421.4768189064
 21
229.2157243234
 31
0.0
  0
LINE
  5
1AB
  8
0
  6
CONTINUOUS
 62
     7
 10
431.4768093697
 20
236.6157244188
 30
0.0
 11
431.4768093697
 21
229.2157243234
 31
0.0
  0
ARC
  5
1AC
  8
0
  6
CONTINUOUS
 62
     7
 10
429.4768189064
 20
229.2157218439
 30
0.0
 40
2.000000000000028
 50
270.0
 51
0.0
  0
ARC
  5
1AD
  8
0
  6
CONTINUOUS
 62
     7
 10
423.4768189064
 20
229.2157218439
 30
0.0
 40
2.000000000000028
 50
180.0
 51
270.0
  0
LINE
  5
1AE
  8
0
  6
CONTINUOUS
 62
     7
 10
423.4768169991
 20
227.2157202703
 30
0.0
 11
429.476811277
 21
227.2157202703
 31
0.0
  0
LINE
  5
1AF
  8
0
  6
CONTINUOUS
 62
     7
 10
421.4768189064
 20
237.6157234651
 30
0.0
 11
425.8768099419
 21
237.6157234651
 31
0.0
  0
LINE
  5
1B0
  8
0
  6
CONTINUOUS
 62
     7
 10
421.4768189064
 20
237.6157234651
 30
0.0
 11
421.4768189064
 21
236.6157244188
 31
0.0
  0
LINE
  5
1B1
  8
0
  6
CONTINUOUS
 62
     7
 10
426.676823484
 20
237.6157234651
 30
0.0
 11
431.4768093697
 21
237.6157234651
 31
0.0
  0
LINE
  5
1B2
  8
0
  6
CONTINUOUS
 62
     7
 10
431.4768093697
 20
237.6157234651
 30
0.0
 11
431.4768093697
 21
236.6157244188
 31
0.0
  0
ARC
  5
1B3
  8
0
  6
CONTINUOUS
 62
     7
 10
299.4035026378
 20
34.2678156383
 30
0.0
 40
8.130070049014694
 50
287.2567479278
 51
289.6913094466
  0
ARC
  5
1B4
  8
0
  6
CONTINUOUS
 62
     7
 10
238.6594098221
 20
34.6326303931
 30
0.0
 40
8.510739561462485
 50
250.4724682313
 51
252.7375622255
  0
ARC
  5
1B5
  8
0
  6
CONTINUOUS
 62
     7
 10
59.4036978372
 20
34.2670893409
 30
0.0
 40
8.12931924658198
 50
287.2569686965
 51
289.6917152452
  0
ARC
  5
1B6
  8
0
  6
CONTINUOUS
 62
     7
 10
-1.3366096239
 20
34.6445306639
 30
0.0
 40
8.523286081682931
 50
250.4739849328
 51
252.7357251967
  0
ARC
  5
1B7
  8
0
  6
CONTINUOUS
 62
     7
 10
419.4068345702
 20
34.257409814
 30
0.0
 40
8.119145626628667
 50
287.2561095499
 51
289.6938275881
  0
ARC
  5
1B8
  8
0
  6
CONTINUOUS
 62
     7
 10
358.658690675
 20
34.630391674
 30
0.0
 40
8.508388631943314
 50
250.4720046195
 51
252.7377055099
  0
ARC
  5
1B9
  8
0
  6
CONTINUOUS
 62
     7
 10
179.403516056
 20
34.2677044563
 30
0.0
 40
8.129960244964503
 50
287.2568980878
 51
289.6914725677
  0
ARC
  5
1BA
  8
0
  6
CONTINUOUS
 62
     7
 10
118.6601293909
 20
34.6348704212
 30
0.0
 40
8.51309186619464
 50
250.4729318557
 51
252.737418923
  0
LINE
  5
1BB
  8
0
  6
CONTINUOUS
 62
     7
 10
-14.6231871971
 20
107.7949051606
 30
0.0
 11
-14.6231871971
 21
108.3949052589
 31
0.0
  0
ARC
  5
1BC
  8
0
  6
CONTINUOUS
 62
     7
 10
-14.2231810936
 20
108.39490525
 30
0.0
 40
0.4000000000000057
 50
90.0
 51
180.0
  0
LINE
  5
1BD
  8
0
  6
CONTINUOUS
 62
     7
 10
432.5768250099
 20
108.3949052589
 30
0.0
 11
432.5768250099
 21
107.7949051606
 31
0.0
  0
ARC
  5
1BE
  8
0
  6
CONTINUOUS
 62
     7
 10
432.1768189064
 20
108.39490525
 30
0.0
 40
0.4000000000000057
 50
0.0
 51
90.0
  0
LINE
  5
1BF
  8
0
  6
CONTINUOUS
 62
     7
 10
-14.223192347
 20
108.7949053245
 30
0.0
 11
-13.5231715569
 21
108.7949053245
 31
0.0
  0
LINE
  5
1C0
  8
0
  6
CONTINUOUS
 62
     7
 10
-3.5231810936
 20
108.7949053245
 30
0.0
 11
61.4768165222
 21
108.7949053245
 31
0.0
  0
LINE
  5
1C1
  8
0
  6
CONTINUOUS
 62
     7
 10
71.4768189064
 20
108.7949053245
 30
0.0
 11
106.4768212906
 21
108.7949053245
 31
0.0
  0
LINE
  5
1C2
  8
0
  6
CONTINUOUS
 62
     7
 10
116.4768177143
 20
108.7949053245
 30
0.0
 11
181.4768183104
 21
108.7949053245
 31
0.0
  0
LINE
  5
1C3
  8
0
  6
CONTINUOUS
 62
     7
 10
191.4768192044
 20
108.7949053245
 30
0.0
 11
226.4768186084
 21
108.7949053245
 31
0.0
  0
LINE
  5
1C4
  8
0
  6
CONTINUOUS
 62
     7
 10
236.4768195025
 20
108.7949053245
 30
0.0
 11
301.4768200985
 21
108.7949053245
 31
0.0
  0
LINE
  5
1C5
  8
0
  6
CONTINUOUS
 62
     7
 10
311.4768165222
 20
108.7949053245
 30
0.0
 11
346.4768189064
 21
108.7949053245
 31
0.0
  0
LINE
  5
1C6
  8
0
  6
CONTINUOUS
 62
     7
 10
356.4768212906
 20
108.7949053245
 30
0.0
 11
421.4768189064
 21
108.7949053245
 31
0.0
  0
LINE
  5
1C7
  8
0
  6
CONTINUOUS
 62
     7
 10
431.4768093697
 20
108.7949053245
 30
0.0
 11
432.1768301598
 21
108.7949053245
 31
0.0
  0
LINE
  5
1C8
  8
0
  6
CONTINUOUS
 62
     7
 10
-14.6231871971
 20
99.7949053394
 30
0.0
 11
-14.6231871971
 21
107.7949051606
 31
0.0
  0
LINE
  5
1C9
  8
0
  6
CONTINUOUS
 62
     7
 10
432.5768250099
 20
107.7949051606
 30
0.0
 11
432.5768250099
 21
99.7949053394
 31
0.0
  0
ARC
  5
1CA
  8
0
  6
CONTINUOUS
 62
     7
 10
-14.2231810936
 20
99.19490525
 30
0.0
 40
0.4000000000000057
 50
180.0
 51
270.0
  0
LINE
  5
1CB
  8
0
  6
CONTINUOUS
 62
     7
 10
-14.6231871971
 20
99.194905241
 30
0.0
 11
-14.6231871971
 21
99.7949053394
 31
0.0
  0
LINE
  5
1CC
  8
0
  6
CONTINUOUS
 62
     7
 10
432.5768250099
 20
99.7949053394
 30
0.0
 11
432.5768250099
 21
99.194905241
 31
0.0
  0
ARC
  5
1CD
  8
0
  6
CONTINUOUS
 62
     7
 10
432.1768189064
 20
99.19490525
 30
0.0
 40
0.4000000000000057
 50
270.0
 51
0.0
  0
LINE
  5
1CE
  8
0
  6
CONTINUOUS
 62
     7
 10
432.1768301598
 20
98.7949051755
 30
0.0
 11
431.4768093697
 21
98.7949051755
 31
0.0
  0
LINE
  5
1CF
  8
0
  6
CONTINUOUS
 62
     7
 10
421.4768189064
 20
98.7949051755
 30
0.0
 11
399.339618074
 21
98.7949051755
 31
0.0
  0
LINE
  5
1D0
  8
0
  6
CONTINUOUS
 62
     7
 10
378.5793322197
 20
98.7949051755
 30
0.0
 11
356.4768212906
 21
98.7949051755
 31
0.0
  0
LINE
  5
1D1
  8
0
  6
CONTINUOUS
 62
     7
 10
346.4768189064
 20
98.7949051755
 30
0.0
 11
311.4768165222
 21
98.7949051755
 31
0.0
  0
LINE
  5
1D2
  8
0
  6
CONTINUOUS
 62
     7
 10
301.4768200985
 20
98.7949051755
 30
0.0
 11
279.3396192661
 21
98.7949051755
 31
0.0
  0
LINE
  5
1D3
  8
0
  6
CONTINUOUS
 62
     7
 10
258.5793304316
 20
98.7949051755
 30
0.0
 11
236.4768195025
 21
98.7949051755
 31
0.0
  0
LINE
  5
1D4
  8
0
  6
CONTINUOUS
 62
     7
 10
226.4768186084
 20
98.7949051755
 30
0.0
 11
191.4768192044
 21
98.7949051755
 31
0.0
  0
LINE
  5
1D5
  8
0
  6
CONTINUOUS
 62
     7
 10
181.4768183104
 20
98.7949051755
 30
0.0
 11
159.3396204582
 21
98.7949051755
 31
0.0
  0
LINE
  5
1D6
  8
0
  6
CONTINUOUS
 62
     7
 10
138.5793286434
 20
98.7949051755
 30
0.0
 11
116.4768177143
 21
98.7949051755
 31
0.0
  0
LINE
  5
1D7
  8
0
  6
CONTINUOUS
 62
     7
 10
106.4768212906
 20
98.7949051755
 30
0.0
 11
71.4768189064
 21
98.7949051755
 31
0.0
  0
LINE
  5
1D8
  8
0
  6
CONTINUOUS
 62
     7
 10
61.4768165222
 20
98.7949051755
 30
0.0
 11
39.3396156899
 21
98.7949051755
 31
0.0
  0
LINE
  5
1D9
  8
0
  6
CONTINUOUS
 62
     7
 10
18.5793298355
 20
98.7949051755
 30
0.0
 11
-3.5231810936
 21
98.7949051755
 31
0.0
  0
LINE
  5
1DA
  8
0
  6
CONTINUOUS
 62
     7
 10
-13.5231715569
 20
98.7949051755
 30
0.0
 11
-14.223192347
 21
98.7949051755
 31
0.0
  0
LINE
  5
1DB
  8
0
  6
CONTINUOUS
 62
     7
 10
17.7521723381
 20
98.6838296848
 30
0.0
 11
17.7366751305
 21
98.7949051755
 31
0.0
  0
LINE
  5
1DC
  8
0
  6
CONTINUOUS
 62
     7
 10
16.9830697647
 20
108.7949053245
 30
0.0
 11
16.9768231979
 21
109.7949051159
 31
0.0
  0
LINE
  5
1DD
  8
0
  6
CONTINUOUS
 62
     7
 10
16.9768231979
 20
111.7949050712
 30
0.0
 11
16.9768231979
 21
109.7949051159
 31
0.0
  0
ARC
  5
1DE
  8
0
  6
CONTINUOUS
 62
     7
 10
20.9768189064
 20
111.79490525
 30
0.0
 40
4.000000000000004
 50
90.0
 51
180.0
  0
LINE
  5
1DF
  8
0
  6
CONTINUOUS
 62
     7
 10
36.9768160454
 20
115.7949049818
 30
0.0
 11
20.9768193832
 21
115.7949049818
 31
0.0
  0
ARC
  5
1E0
  8
0
  6
CONTINUOUS
 62
     7
 10
36.9768189064
 20
111.79490525
 30
0.0
 40
4.000000000000007
 50
0.0
 51
90.0
  0
LINE
  5
1E1
  8
0
  6
CONTINUOUS
 62
     7
 10
40.9768241516
 20
109.7949051159
 30
0.0
 11
40.9768241516
 21
111.7949050712
 31
0.0
  0
LINE
  5
1E2
  8
0
  6
CONTINUOUS
 62
     7
 10
40.9768241516
 20
109.7949051159
 30
0.0
 11
40.9705656639
 21
108.7949053245
 31
0.0
  0
LINE
  5
1E3
  8
0
  6
CONTINUOUS
 62
     7
 10
40.2169602982
 20
98.7949051755
 30
0.0
 11
40.1999968163
 21
98.6734089302
 31
0.0
  0
CIRCLE
  5
1E4
  8
0
  6
CONTINUOUS
 62
     7
 10
20.9768189064
 20
111.79490525
 30
0.0
 40
1.500000000000028
  0
CIRCLE
  5
1E5
  8
0
  6
CONTINUOUS
 62
     7
 10
36.9768189064
 20
111.79490525
 30
0.0
 40
1.500000000000014
  0
ARC
  5
1E6
  8
0
  6
CONTINUOUS
 62
     7
 10
396.9768189064
 20
111.79490525
 30
0.0
 40
4.000000000000057
 50
0.0
 51
90.0
  0
LINE
  5
1E7
  8
0
  6
CONTINUOUS
 62
     7
 10
400.9768146149
 20
109.7949051159
 30
0.0
 11
400.9768146149
 21
111.7949050712
 31
0.0
  0
LINE
  5
1E8
  8
0
  6
CONTINUOUS
 62
     7
 10
400.9768146149
 20
109.7949051159
 30
0.0
 11
400.9705680481
 21
108.7949053245
 31
0.0
  0
LINE
  5
1E9
  8
0
  6
CONTINUOUS
 62
     7
 10
400.2169626823
 20
98.7949051755
 30
0.0
 11
400.1999992004
 21
98.6734089302
 31
0.0
  0
LINE
  5
1EA
  8
0
  6
CONTINUOUS
 62
     7
 10
377.7521747223
 20
98.6838296848
 30
0.0
 11
377.7366775146
 21
98.7949051755
 31
0.0
  0
LINE
  5
1EB
  8
0
  6
CONTINUOUS
 62
     7
 10
376.9830721489
 20
108.7949053245
 30
0.0
 11
376.9768136612
 21
109.7949051159
 31
0.0
  0
LINE
  5
1EC
  8
0
  6
CONTINUOUS
 62
     7
 10
376.9768136612
 20
111.7949050712
 30
0.0
 11
376.9768136612
 21
109.7949051159
 31
0.0
  0
ARC
  5
1ED
  8
0
  6
CONTINUOUS
 62
     7
 10
380.9768189064
 20
111.79490525
 30
0.0
 40
4.0
 50
90.0
 51
180.0
  0
LINE
  5
1EE
  8
0
  6
CONTINUOUS
 62
     7
 10
396.9768184296
 20
115.7949049818
 30
0.0
 11
380.9768217674
 21
115.7949049818
 31
0.0
  0
CIRCLE
  5
1EF
  8
0
  6
CONTINUOUS
 62
     7
 10
396.9768189064
 20
111.79490525
 30
0.0
 40
1.500000000000014
  0
CIRCLE
  5
1F0
  8
0
  6
CONTINUOUS
 62
     7
 10
380.9768189064
 20
111.79490525
 30
0.0
 40
1.500000000000028
  0
ARC
  5
1F1
  8
0
  6
CONTINUOUS
 62
     7
 10
240.8545950484
 20
85.895432654
 30
0.0
 40
7.349236256921776
 50
115.9018834053
 51
164.5640175698
  0
ARC
  5
1F2
  8
0
  6
CONTINUOUS
 62
     7
 10
268.9768198005
 20
26.2061261098
 30
0.0
 40
73.3311453959339
 50
64.7052198057
 51
115.2947801943
  0
ARC
  5
1F3
  8
0
  6
CONTINUOUS
 62
     7
 10
297.1151015988
 20
85.9087975063
 30
0.0
 40
7.330204822447684
 50
15.3686942198
 51
64.1653831319
  0
POLYLINE
  5
1F4
  8
0
  6
CONTINUOUS
 62
     7
 66
     1
 10
0.0
 20
0.0
 30
0.0
  0
VERTEX
  5
6AE
  8
0
  6
CONTINUOUS
 62
     7
 10
304.1831630341
 20
87.8515106486
 30
0.0
  0
VERTEX
  5
6AF
  8
0
  6
CONTINUOUS
 62
     7
 10
305.1002281776
 20
84.5599067258
 30
0.0
  0
VERTEX
  5
6B0
  8
0
  6
CONTINUOUS
 62
     7
 10
305.7014006248
 20
81.2836316275
 30
0.0
  0
VERTEX
  5
6B1
  8
0
  6
CONTINUOUS
 62
     7
 10
306.0589271656
 20
77.9914912628
 30
0.0
  0
VERTEX
  5
6B2
  8
0
  6
CONTINUOUS
 62
     7
 10
306.2736827007
 20
74.6963080811
 30
0.0
  0
VERTEX
  5
6B3
  8
0
  6
CONTINUOUS
 62
     7
 10
306.355430471
 20
71.398117845
 30
0.0
  0
VERTEX
  5
6B4
  8
0
  6
CONTINUOUS
 62
     7
 10
306.3522654644
 20
68.0972960638
 30
0.0
  0
VERTEX
  5
6B5
  8
0
  6
CONTINUOUS
 62
     7
 10
306.3251632324
 20
64.7970286059
 30
0.0
  0
VERTEX
  5
6B6
  8
0
  6
CONTINUOUS
 62
     7
 10
306.3230055443
 20
61.4995119022
 30
0.0
  0
VERTEX
  5
6B7
  8
0
  6
CONTINUOUS
 62
     7
 10
306.369944202
 20
55.1793631958
 30
0.0
  0
VERTEX
  5
6B8
  8
0
  6
CONTINUOUS
 62
     7
 10
306.4040320984
 20
48.8586333441
 30
0.0
  0
VERTEX
  5
6B9
  8
0
  6
CONTINUOUS
 62
     7
 10
306.4130383602
 20
42.6054027723
 30
0.0
  0
VERTEX
  5
6BA
  8
0
  6
CONTINUOUS
 62
     7
 10
306.4148503414
 20
40.7606807398
 30
0.0
  0
VERTEX
  5
6BB
  8
0
  6
CONTINUOUS
 62
     7
 10
306.4193445316
 20
38.8931539702
 30
0.0
  0
VERTEX
  5
6BC
  8
0
  6
CONTINUOUS
 62
     7
 10
306.4285355679
 20
36.9977918314
 30
0.0
  0
VERTEX
  5
6BD
  8
0
  6
CONTINUOUS
 62
     7
 10
306.4445274941
 20
35.0702253031
 30
0.0
  0
VERTEX
  5
6BE
  8
0
  6
CONTINUOUS
 62
     7
 10
306.4686196915
 20
33.1016507792
 30
0.0
  0
SEQEND
  5
87B
  8
0
  6
CONTINUOUS
 62
     7
  0
ARC
  5
1F5
  8
0
  6
CONTINUOUS
 62
     7
 10
299.7484879135
 20
32.9082858732
 30
0.0
 40
6.722913140893613
 50
275.3898256084
 51
1.6481725824
  0
ARC
  5
1F6
  8
0
  6
CONTINUOUS
 62
     7
 10
268.9768183104
 20
366.1460367164
 30
0.0
 40
341.378385984703
 50
264.7219388452
 51
275.2780611548
  0
ARC
  5
1F7
  8
0
  6
CONTINUOUS
 62
     7
 10
238.1951654981
 20
32.8994608277
 30
0.0
 40
6.713195557275394
 50
178.274088261
 51
264.687927465
  0
POLYLINE
  5
1F8
  8
0
  6
CONTINUOUS
 62
     7
 66
     1
 10
0.0
 20
0.0
 30
0.0
  0
VERTEX
  5
6BF
  8
0
  6
CONTINUOUS
 62
     7
 10
231.4850154391
 20
33.1016507792
 30
0.0
  0
VERTEX
  5
6C0
  8
0
  6
CONTINUOUS
 62
     7
 10
231.5133336059
 20
35.4986754107
 30
0.0
  0
VERTEX
  5
6C1
  8
0
  6
CONTINUOUS
 62
     7
 10
231.5298724047
 20
37.8383663344
 30
0.0
  0
VERTEX
  5
6C2
  8
0
  6
CONTINUOUS
 62
     7
 10
231.5376686922
 20
40.1327696489
 30
0.0
  0
VERTEX
  5
6C3
  8
0
  6
CONTINUOUS
 62
     7
 10
231.5404611698
 20
42.3906412767
 30
0.0
  0
VERTEX
  5
6C4
  8
0
  6
CONTINUOUS
 62
     7
 10
231.5418633691
 20
44.621172254
 30
0.0
  0
VERTEX
  5
6C5
  8
0
  6
CONTINUOUS
 62
     7
 10
231.5447735659
 20
46.8486097502
 30
0.0
  0
VERTEX
  5
6C6
  8
0
  6
CONTINUOUS
 62
     7
 10
231.5503153077
 20
49.0895119356
 30
0.0
  0
VERTEX
  5
6C7
  8
0
  6
CONTINUOUS
 62
     7
 10
231.5846401325
 20
55.2955713915
 30
0.0
  0
VERTEX
  5
6C8
  8
0
  6
CONTINUOUS
 62
     7
 10
231.6306310764
 20
61.4995119022
 30
0.0
  0
VERTEX
  5
6C9
  8
0
  6
CONTINUOUS
 62
     7
 10
231.6284733883
 20
64.7970286059
 30
0.0
  0
VERTEX
  5
6CA
  8
0
  6
CONTINUOUS
 62
     7
 10
231.6013726464
 20
68.0972960638
 30
0.0
  0
VERTEX
  5
6CB
  8
0
  6
CONTINUOUS
 62
     7
 10
231.5982076398
 20
71.398117845
 30
0.0
  0
VERTEX
  5
6CC
  8
0
  6
CONTINUOUS
 62
     7
 10
231.67995392
 20
74.6963080811
 30
0.0
  0
VERTEX
  5
6CD
  8
0
  6
CONTINUOUS
 62
     7
 10
231.8947124353
 20
77.9914912628
 30
0.0
  0
VERTEX
  5
6CE
  8
0
  6
CONTINUOUS
 62
     7
 10
232.2522345058
 20
81.2836316275
 30
0.0
  0
VERTEX
  5
6CF
  8
0
  6
CONTINUOUS
 62
     7
 10
232.8534084431
 20
84.5599067258
 30
0.0
  0
VERTEX
  5
6D0
  8
0
  6
CONTINUOUS
 62
     7
 10
233.7704750768
 20
87.8515106486
 30
0.0
  0
SEQEND
  5
87A
  8
0
  6
CONTINUOUS
 62
     7
  0
ARC
  5
1F9
  8
0
  6
CONTINUOUS
 62
     7
 10
268.9768198005
 20
26.2184060413
 30
0.0
 40
73.3397013341413
 50
64.3650302506
 51
115.6349697494
  0
ARC
  5
1FA
  8
0
  6
CONTINUOUS
 62
     7
 10
297.4505967722
 20
85.7327391222
 30
0.0
 40
7.365063780396392
 50
15.5445901336
 51
63.7661300822
  0
ARC
  5
1FB
  8
0
  6
CONTINUOUS
 62
     7
 10
240.4851816268
 20
85.7475420087
 30
0.0
 40
7.343896451029599
 50
116.1599239314
 51
164.5293340052
  0
POLYLINE
  5
1FC
  8
0
  6
CONTINUOUS
 62
     7
 66
     1
 10
0.0
 20
0.0
 30
0.0
  0
VERTEX
  5
6D1
  8
0
  6
CONTINUOUS
 62
     7
 10
304.5462626091
 20
87.7064895677
 30
0.0
  0
VERTEX
  5
6D2
  8
0
  6
CONTINUOUS
 62
     7
 10
304.9801784626
 20
86.193334763
 30
0.0
  0
VERTEX
  5
6D3
  8
0
  6
CONTINUOUS
 62
     7
 10
305.3781527153
 20
84.680176978
 30
0.0
  0
SEQEND
  5
879
  8
0
  6
CONTINUOUS
 62
     7
  0
ARC
  5
1FD
  8
0
  6
CONTINUOUS
 62
     7
 10
246.7355206006
 20
72.7382119365
 30
0.0
 40
59.84602014345978
 50
6.6420820492
 51
11.5103020782
  0
POLYLINE
  5
1FE
  8
0
  6
CONTINUOUS
 62
     7
 66
     1
 10
0.0
 20
0.0
 30
0.0
  0
VERTEX
  5
6D4
  8
0
  6
CONTINUOUS
 62
     7
 10
306.1795729271
 20
79.6603751229
 30
0.0
  0
VERTEX
  5
6D5
  8
0
  6
CONTINUOUS
 62
     7
 10
306.4038354031
 20
77.1569547104
 30
0.0
  0
VERTEX
  5
6D6
  8
0
  6
CONTINUOUS
 62
     7
 10
306.5483409039
 20
74.6532079624
 30
0.0
  0
SEQEND
  5
878
  8
0
  6
CONTINUOUS
 62
     7
  0
LINE
  5
1FF
  8
0
  6
CONTINUOUS
 62
     7
 10
306.5768200031
 20
72.8003379749
 30
0.0
 11
306.5479951969
 21
74.6531930613
 31
0.0
  0
LINE
  5
200
  8
0
  6
CONTINUOUS
 62
     7
 10
306.5768200031
 20
64.6887806105
 30
0.0
 11
306.5768200031
 21
72.8003379749
 31
0.0
  0
POLYLINE
  5
201
  8
0
  6
CONTINUOUS
 62
     7
 66
     1
 10
0.0
 20
0.0
 30
0.0
  0
VERTEX
  5
6D7
  8
0
  6
CONTINUOUS
 62
     7
 10
306.5768200031
 20
64.6887984919
 30
0.0
  0
VERTEX
  5
6D8
  8
0
  6
CONTINUOUS
 62
     7
 10
306.5621095768
 20
61.5169343399
 30
0.0
  0
VERTEX
  5
6D9
  8
0
  6
CONTINUOUS
 62
     7
 10
306.5768200031
 20
54.6889093565
 30
0.0
  0
SEQEND
  5
877
  8
0
  6
CONTINUOUS
 62
     7
  0
POLYLINE
  5
202
  8
0
  6
CONTINUOUS
 62
     7
 66
     1
 10
0.0
 20
0.0
 30
0.0
  0
VERTEX
  5
6DA
  8
0
  6
CONTINUOUS
 62
     7
 10
306.5768915287
 20
33.0344346212
 30
0.0
  0
VERTEX
  5
6DB
  8
0
  6
CONTINUOUS
 62
     7
 10
306.5768855682
 20
33.342376058
 30
0.0
  0
VERTEX
  5
6DC
  8
0
  6
CONTINUOUS
 62
     7
 10
306.5766709915
 20
35.7542243647
 30
0.0
  0
VERTEX
  5
6DD
  8
0
  6
CONTINUOUS
 62
     7
 10
306.5761941544
 20
38.1387797045
 30
0.0
  0
VERTEX
  5
6DE
  8
0
  6
CONTINUOUS
 62
     7
 10
306.5758484474
 20
40.5021277117
 30
0.0
  0
VERTEX
  5
6DF
  8
0
  6
CONTINUOUS
 62
     7
 10
306.5771657101
 20
45.2109780954
 30
0.0
  0
VERTEX
  5
6E0
  8
0
  6
CONTINUOUS
 62
     7
 10
306.5806406609
 20
49.9448803114
 30
0.0
  0
VERTEX
  5
6E1
  8
0
  6
CONTINUOUS
 62
     7
 10
306.5768200031
 20
54.6889093565
 30
0.0
  0
SEQEND
  5
876
  8
0
  6
CONTINUOUS
 62
     7
  0
LINE
  5
203
  8
0
  6
CONTINUOUS
 62
     7
 10
231.3768195978
 20
54.6889093565
 30
0.0
 11
231.3768195978
 21
44.6910646605
 31
0.0
  0
POLYLINE
  5
204
  8
0
  6
CONTINUOUS
 62
     7
 66
     1
 10
0.0
 20
0.0
 30
0.0
  0
VERTEX
  5
6E2
  8
0
  6
CONTINUOUS
 62
     7
 10
231.3768151275
 20
54.6889093565
 30
0.0
  0
VERTEX
  5
6E3
  8
0
  6
CONTINUOUS
 62
     7
 10
231.391528534
 20
61.5169343399
 30
0.0
  0
VERTEX
  5
6E4
  8
0
  6
CONTINUOUS
 62
     7
 10
231.3768195978
 20
64.6887984919
 30
0.0
  0
SEQEND
  5
875
  8
0
  6
CONTINUOUS
 62
     7
  0
LINE
  5
205
  8
0
  6
CONTINUOUS
 62
     7
 10
231.3768195978
 20
72.8003379749
 30
0.0
 11
231.3768195978
 21
64.6887806105
 31
0.0
  0
LINE
  5
206
  8
0
  6
CONTINUOUS
 62
     7
 10
231.4056414238
 20
74.6531930613
 30
0.0
 11
231.3768195978
 21
72.8003379749
 31
0.0
  0
POLYLINE
  5
207
  8
0
  6
CONTINUOUS
 62
     7
 66
     1
 10
0.0
 20
0.0
 30
0.0
  0
VERTEX
  5
6E5
  8
0
  6
CONTINUOUS
 62
     7
 10
231.4052942267
 20
74.6532079624
 30
0.0
  0
VERTEX
  5
6E6
  8
0
  6
CONTINUOUS
 62
     7
 10
231.5497997275
 20
77.1569547104
 30
0.0
  0
VERTEX
  5
6E7
  8
0
  6
CONTINUOUS
 62
     7
 10
231.7740651837
 20
79.6603751229
 30
0.0
  0
SEQEND
  5
874
  8
0
  6
CONTINUOUS
 62
     7
  0
ARC
  5
208
  8
0
  6
CONTINUOUS
 62
     7
 10
291.1757066431
 20
72.744986983
 30
0.0
 40
59.80311031507878
 50
168.4879503506
 51
173.359665522
  0
POLYLINE
  5
209
  8
0
  6
CONTINUOUS
 62
     7
 66
     1
 10
0.0
 20
0.0
 30
0.0
  0
VERTEX
  5
6E8
  8
0
  6
CONTINUOUS
 62
     7
 10
232.5768190495
 20
84.6857664036
 30
0.0
  0
VERTEX
  5
6E9
  8
0
  6
CONTINUOUS
 62
     7
 10
232.9742449394
 20
86.1961302208
 30
0.0
  0
VERTEX
  5
6EA
  8
0
  6
CONTINUOUS
 62
     7
 10
233.4073755017
 20
87.7064895677
 30
0.0
  0
SEQEND
  5
873
  8
0
  6
CONTINUOUS
 62
     7
  0
POLYLINE
  5
20A
  8
0
  6
CONTINUOUS
 62
     7
 66
     1
 10
0.0
 20
0.0
 30
0.0
  0
VERTEX
  5
6EB
  8
0
  6
CONTINUOUS
 62
     7
 10
231.3767480722
 20
33.0353823351
 30
0.0
  0
VERTEX
  5
6EC
  8
0
  6
CONTINUOUS
 62
     7
 10
231.3767480722
 20
33.0607083487
 30
0.0
  0
VERTEX
  5
6ED
  8
0
  6
CONTINUOUS
 62
     7
 10
231.3769179455
 20
35.4737189459
 30
0.0
  0
VERTEX
  5
6EE
  8
0
  6
CONTINUOUS
 62
     7
 10
231.3773828617
 20
37.8621843504
 30
0.0
  0
VERTEX
  5
6EF
  8
0
  6
CONTINUOUS
 62
     7
 10
231.3777688018
 20
40.2281013178
 30
0.0
  0
VERTEX
  5
6F0
  8
0
  6
CONTINUOUS
 62
     7
 10
231.3776644937
 20
42.5829258608
 30
0.0
  0
VERTEX
  5
6F1
  8
0
  6
CONTINUOUS
 62
     7
 10
231.3768195978
 20
44.6910646605
 30
0.0
  0
SEQEND
  5
872
  8
0
  6
CONTINUOUS
 62
     7
  0
ARC
  5
20B
  8
0
  6
CONTINUOUS
 62
     7
 10
299.9323974527
 20
32.8977985261
 30
0.0
 40
6.645898806713849
 50
292.5444656896
 51
1.178053328
  0
ARC
  5
20C
  8
0
  6
CONTINUOUS
 62
     7
 10
238.0242767747
 20
32.9017760213
 30
0.0
 40
6.648871219741801
 50
178.84858754
 51
250.6417888062
  0
LINE
  5
20D
  8
0
  6
CONTINUOUS
 62
     7
 10
306.1768191925
 20
79.6865281509
 30
0.0
 11
306.1798590294
 21
79.6604079055
 31
0.0
  0
POLYLINE
  5
20E
  8
0
  6
CONTINUOUS
 62
     7
 66
     1
 10
0.0
 20
0.0
 30
0.0
  0
VERTEX
  5
6F2
  8
0
  6
CONTINUOUS
 62
     7
 10
305.3779679409
 20
84.6801337647
 30
0.0
  0
VERTEX
  5
6F3
  8
0
  6
CONTINUOUS
 62
     7
 10
305.830152618
 20
82.1942684101
 30
0.0
  0
VERTEX
  5
6F4
  8
0
  6
CONTINUOUS
 62
     7
 10
306.1768191925
 20
79.6865281509
 30
0.0
  0
SEQEND
  5
871
  8
0
  6
CONTINUOUS
 62
     7
  0
POLYLINE
  5
20F
  8
0
  6
CONTINUOUS
 62
     7
 66
     1
 10
0.0
 20
0.0
 30
0.0
  0
VERTEX
  5
6F5
  8
0
  6
CONTINUOUS
 62
     7
 10
231.7768189183
 20
79.6865281509
 30
0.0
  0
VERTEX
  5
6F6
  8
0
  6
CONTINUOUS
 62
     7
 10
232.1227493754
 20
82.1896699118
 30
0.0
  0
VERTEX
  5
6F7
  8
0
  6
CONTINUOUS
 62
     7
 10
232.5756701699
 20
84.6801337647
 30
0.0
  0
SEQEND
  5
870
  8
0
  6
CONTINUOUS
 62
     7
  0
LINE
  5
210
  8
0
  6
CONTINUOUS
 62
     7
 10
231.7737790814
 20
79.6604079055
 30
0.0
 11
231.7768189183
 21
79.6865281509
 31
0.0
  0
LINE
  5
211
  8
0
  6
CONTINUOUS
 62
     7
 10
306.5479951969
 20
74.6531930613
 30
0.0
 11
306.5768200031
 21
72.8025016235
 31
0.0
  0
LINE
  5
212
  8
0
  6
CONTINUOUS
 62
     7
 10
231.3768195978
 20
72.8025016235
 30
0.0
 11
231.4056414238
 21
74.6531930613
 31
0.0
  0
ARC
  5
213
  8
0
  6
CONTINUOUS
 62
     7
 10
0.8546441317
 20
85.8953976899
 30
0.0
 40
7.349292013990755
 50
115.9021545295
 51
164.5638548118
  0
ARC
  5
214
  8
0
  6
CONTINUOUS
 62
     7
 10
28.9768177143
 20
26.2061030061
 30
0.0
 40
73.33116819455024
 50
64.7052243607
 51
115.2947756393
  0
ARC
  5
215
  8
0
  6
CONTINUOUS
 62
     7
 10
57.1151066544
 20
85.9088087799
 30
0.0
 40
7.330193511455146
 50
15.3686271333
 51
64.1653635254
  0
POLYLINE
  5
216
  8
0
  6
CONTINUOUS
 62
     7
 66
     1
 10
0.0
 20
0.0
 30
0.0
  0
VERTEX
  5
6F8
  8
0
  6
CONTINUOUS
 62
     7
 10
64.1831654182
 20
87.8515106486
 30
0.0
  0
VERTEX
  5
6F9
  8
0
  6
CONTINUOUS
 62
     7
 10
65.1002305618
 20
84.5599067258
 30
0.0
  0
VERTEX
  5
6FA
  8
0
  6
CONTINUOUS
 62
     7
 10
65.701403009
 20
81.2836316275
 30
0.0
  0
VERTEX
  5
6FB
  8
0
  6
CONTINUOUS
 62
     7
 10
66.0589235893
 20
77.9914912628
 30
0.0
  0
VERTEX
  5
6FC
  8
0
  6
CONTINUOUS
 62
     7
 10
66.2736791245
 20
74.6963080811
 30
0.0
  0
VERTEX
  5
6FD
  8
0
  6
CONTINUOUS
 62
     7
 10
66.3554328552
 20
71.398117845
 30
0.0
  0
VERTEX
  5
6FE
  8
0
  6
CONTINUOUS
 62
     7
 10
66.3522618881
 20
68.0972960638
 30
0.0
  0
VERTEX
  5
6FF
  8
0
  6
CONTINUOUS
 62
     7
 10
66.3251656166
 20
64.7970286059
 30
0.0
  0
VERTEX
  5
700
  8
0
  6
CONTINUOUS
 62
     7
 10
66.3230079285
 20
61.4995119022
 30
0.0
  0
VERTEX
  5
701
  8
0
  6
CONTINUOUS
 62
     7
 10
66.3699406258
 20
55.1793631958
 30
0.0
  0
VERTEX
  5
702
  8
0
  6
CONTINUOUS
 62
     7
 10
66.4040344826
 20
48.8586333441
 30
0.0
  0
VERTEX
  5
703
  8
0
  6
CONTINUOUS
 62
     7
 10
66.4130347839
 20
42.6054027723
 30
0.0
  0
VERTEX
  5
704
  8
0
  6
CONTINUOUS
 62
     7
 10
66.4148467651
 20
40.7606807398
 30
0.0
  0
VERTEX
  5
705
  8
0
  6
CONTINUOUS
 62
     7
 10
66.4193409554
 20
38.8931539702
 30
0.0
  0
VERTEX
  5
706
  8
0
  6
CONTINUOUS
 62
     7
 10
66.4285319916
 20
36.9977918314
 30
0.0
  0
VERTEX
  5
707
  8
0
  6
CONTINUOUS
 62
     7
 10
66.4445298782
 20
35.0702253031
 30
0.0
  0
VERTEX
  5
708
  8
0
  6
CONTINUOUS
 62
     7
 10
66.4686220757
 20
33.1016507792
 30
0.0
  0
SEQEND
  5
86F
  8
0
  6
CONTINUOUS
 62
     7
  0
ARC
  5
217
  8
0
  6
CONTINUOUS
 62
     7
 10
59.7484707252
 20
32.908303178
 30
0.0
 40
6.722932207627596
 50
275.3899778237
 51
1.6480203672
  0
ARC
  5
218
  8
0
  6
CONTINUOUS
 62
     7
 10
28.9768236748
 20
366.1459167498
 30
0.0
 40
341.3782662526383
 50
264.7219374911
 51
275.2780625089
  0
ARC
  5
219
  8
0
  6
CONTINUOUS
 62
     7
 10
-1.804851089
 20
32.8994373328
 30
0.0
 40
6.713169855086938
 50
178.2738810347
 51
264.6881207745
  0
POLYLINE
  5
21A
  8
0
  6
CONTINUOUS
 62
     7
 66
     1
 10
0.0
 20
0.0
 30
0.0
  0
VERTEX
  5
709
  8
0
  6
CONTINUOUS
 62
     7
 10
-8.5149747261
 20
33.1016507792
 30
0.0
  0
VERTEX
  5
70A
  8
0
  6
CONTINUOUS
 62
     7
 10
-8.4866744408
 20
35.4986754107
 30
0.0
  0
VERTEX
  5
70B
  8
0
  6
CONTINUOUS
 62
     7
 10
-8.4701281914
 20
37.8383663344
 30
0.0
  0
VERTEX
  5
70C
  8
0
  6
CONTINUOUS
 62
     7
 10
-8.4623319038
 20
40.1327696489
 30
0.0
  0
VERTEX
  5
70D
  8
0
  6
CONTINUOUS
 62
     7
 10
-8.4595424065
 20
42.3906412767
 30
0.0
  0
VERTEX
  5
70E
  8
0
  6
CONTINUOUS
 62
     7
 10
-8.4581357368
 20
44.621172254
 30
0.0
  0
VERTEX
  5
70F
  8
0
  6
CONTINUOUS
 62
     7
 10
-8.4552270302
 20
46.8486097502
 30
0.0
  0
VERTEX
  5
710
  8
0
  6
CONTINUOUS
 62
     7
 10
-8.4496957191
 20
49.0895119356
 30
0.0
  0
VERTEX
  5
711
  8
0
  6
CONTINUOUS
 62
     7
 10
-8.4153634438
 20
55.2955713915
 30
0.0
  0
VERTEX
  5
712
  8
0
  6
CONTINUOUS
 62
     7
 10
-8.3693724998
 20
61.4995119022
 30
0.0
  0
VERTEX
  5
713
  8
0
  6
CONTINUOUS
 62
     7
 10
-8.3715182671
 20
64.7970286059
 30
0.0
  0
VERTEX
  5
714
  8
0
  6
CONTINUOUS
 62
     7
 10
-8.3986264595
 20
68.0972960638
 30
0.0
  0
VERTEX
  5
715
  8
0
  6
CONTINUOUS
 62
     7
 10
-8.4017974266
 20
71.398117845
 30
0.0
  0
VERTEX
  5
716
  8
0
  6
CONTINUOUS
 62
     7
 10
-8.3200436958
 20
74.6963080811
 30
0.0
  0
VERTEX
  5
717
  8
0
  6
CONTINUOUS
 62
     7
 10
-8.1053000816
 20
77.9914912628
 30
0.0
  0
VERTEX
  5
718
  8
0
  6
CONTINUOUS
 62
     7
 10
-7.7477675804
 20
81.2836316275
 30
0.0
  0
VERTEX
  5
719
  8
0
  6
CONTINUOUS
 62
     7
 10
-7.1465951332
 20
84.5599067258
 30
0.0
  0
VERTEX
  5
71A
  8
0
  6
CONTINUOUS
 62
     7
 10
-6.2295180687
 20
87.8515106486
 30
0.0
  0
SEQEND
  5
86E
  8
0
  6
CONTINUOUS
 62
     7
  0
ARC
  5
21B
  8
0
  6
CONTINUOUS
 62
     7
 10
28.9768177143
 20
26.2183836765
 30
0.0
 40
73.3397234316
 50
64.3650346611
 51
115.6349653389
  0
ARC
  5
21C
  8
0
  6
CONTINUOUS
 62
     7
 10
57.4505434268
 20
85.7326929279
 30
0.0
 40
7.365129851135058
 50
15.5448201664
 51
63.7659000493
  0
ARC
  5
21D
  8
0
  6
CONTINUOUS
 62
     7
 10
0.4851977498
 20
85.7475254863
 30
0.0
 40
7.34392127992724
 50
116.1600259162
 51
164.529253868
  0
POLYLINE
  5
21E
  8
0
  6
CONTINUOUS
 62
     7
 66
     1
 10
0.0
 20
0.0
 30
0.0
  0
VERTEX
  5
71B
  8
0
  6
CONTINUOUS
 62
     7
 10
64.5462649933
 20
87.7064895677
 30
0.0
  0
VERTEX
  5
71C
  8
0
  6
CONTINUOUS
 62
     7
 10
64.9801748863
 20
86.193334763
 30
0.0
  0
VERTEX
  5
71D
  8
0
  6
CONTINUOUS
 62
     7
 10
65.3781550995
 20
84.680176978
 30
0.0
  0
SEQEND
  5
86D
  8
0
  6
CONTINUOUS
 62
     7
  0
ARC
  5
21F
  8
0
  6
CONTINUOUS
 62
     7
 10
6.7368482784
 20
72.7383540185
 30
0.0
 40
59.84468731089842
 50
6.6420936952
 51
11.5104231132
  0
POLYLINE
  5
220
  8
0
  6
CONTINUOUS
 62
     7
 66
     1
 10
0.0
 20
0.0
 30
0.0
  0
VERTEX
  5
71E
  8
0
  6
CONTINUOUS
 62
     7
 10
66.1795753113
 20
79.6603751229
 30
0.0
  0
VERTEX
  5
71F
  8
0
  6
CONTINUOUS
 62
     7
 10
66.4038318268
 20
77.1569547104
 30
0.0
  0
VERTEX
  5
720
  8
0
  6
CONTINUOUS
 62
     7
 10
66.5483373276
 20
74.6532079624
 30
0.0
  0
SEQEND
  5
86C
  8
0
  6
CONTINUOUS
 62
     7
  0
LINE
  5
221
  8
0
  6
CONTINUOUS
 62
     7
 10
66.5768164269
 20
72.8003379749
 30
0.0
 11
66.5479916206
 21
74.6531930613
 31
0.0
  0
LINE
  5
222
  8
0
  6
CONTINUOUS
 62
     7
 10
66.5768164269
 20
64.6887806105
 30
0.0
 11
66.5768164269
 21
72.8003379749
 31
0.0
  0
POLYLINE
  5
223
  8
0
  6
CONTINUOUS
 62
     7
 66
     1
 10
0.0
 20
0.0
 30
0.0
  0
VERTEX
  5
721
  8
0
  6
CONTINUOUS
 62
     7
 10
66.5768164269
 20
64.6887984919
 30
0.0
  0
VERTEX
  5
722
  8
0
  6
CONTINUOUS
 62
     7
 10
66.5621060005
 20
61.5169343399
 30
0.0
  0
VERTEX
  5
723
  8
0
  6
CONTINUOUS
 62
     7
 10
66.5768164269
 20
54.6889093565
 30
0.0
  0
SEQEND
  5
86B
  8
0
  6
CONTINUOUS
 62
     7
  0
POLYLINE
  5
224
  8
0
  6
CONTINUOUS
 62
     7
 66
     1
 10
0.0
 20
0.0
 30
0.0
  0
VERTEX
  5
724
  8
0
  6
CONTINUOUS
 62
     7
 10
66.5768879524
 20
33.0344346212
 30
0.0
  0
VERTEX
  5
725
  8
0
  6
CONTINUOUS
 62
     7
 10
66.5768879524
 20
33.342376058
 30
0.0
  0
VERTEX
  5
726
  8
0
  6
CONTINUOUS
 62
     7
 10
66.5766733757
 20
35.7542243647
 30
0.0
  0
VERTEX
  5
727
  8
0
  6
CONTINUOUS
 62
     7
 10
66.5761965385
 20
38.1387797045
 30
0.0
  0
VERTEX
  5
728
  8
0
  6
CONTINUOUS
 62
     7
 10
66.5758508316
 20
40.5021277117
 30
0.0
  0
VERTEX
  5
729
  8
0
  6
CONTINUOUS
 62
     7
 10
66.5771621338
 20
45.2109780954
 30
0.0
  0
VERTEX
  5
72A
  8
0
  6
CONTINUOUS
 62
     7
 10
66.580643045
 20
49.9448803114
 30
0.0
  0
VERTEX
  5
72B
  8
0
  6
CONTINUOUS
 62
     7
 10
66.5768164269
 20
54.6889093565
 30
0.0
  0
SEQEND
  5
86A
  8
0
  6
CONTINUOUS
 62
     7
  0
LINE
  5
225
  8
0
  6
CONTINUOUS
 62
     7
 10
-8.6231929192
 20
54.6889093565
 30
0.0
 11
-8.6231929192
 21
44.6910646605
 31
0.0
  0
POLYLINE
  5
226
  8
0
  6
CONTINUOUS
 62
     7
 66
     1
 10
0.0
 20
0.0
 30
0.0
  0
VERTEX
  5
72C
  8
0
  6
CONTINUOUS
 62
     7
 10
-8.6231929192
 20
54.6889093565
 30
0.0
  0
VERTEX
  5
72D
  8
0
  6
CONTINUOUS
 62
     7
 10
-8.6084824928
 20
61.5169343399
 30
0.0
  0
VERTEX
  5
72E
  8
0
  6
CONTINUOUS
 62
     7
 10
-8.6231690773
 20
64.6887984919
 30
0.0
  0
SEQEND
  5
869
  8
0
  6
CONTINUOUS
 62
     7
  0
LINE
  5
227
  8
0
  6
CONTINUOUS
 62
     7
 10
-8.6231929192
 20
72.8003379749
 30
0.0
 11
-8.6231929192
 21
64.6887806105
 31
0.0
  0
LINE
  5
228
  8
0
  6
CONTINUOUS
 62
     7
 10
-8.5943681129
 20
74.6531930613
 30
0.0
 11
-8.6231929192
 21
72.8003379749
 31
0.0
  0
POLYLINE
  5
229
  8
0
  6
CONTINUOUS
 62
     7
 66
     1
 10
0.0
 20
0.0
 30
0.0
  0
VERTEX
  5
72F
  8
0
  6
CONTINUOUS
 62
     7
 10
-8.594701899
 20
74.6532079624
 30
0.0
  0
VERTEX
  5
730
  8
0
  6
CONTINUOUS
 62
     7
 10
-8.4501963982
 20
77.1569547104
 30
0.0
  0
VERTEX
  5
731
  8
0
  6
CONTINUOUS
 62
     7
 10
-8.2259398827
 20
79.6603751229
 30
0.0
  0
SEQEND
  5
868
  8
0
  6
CONTINUOUS
 62
     7
  0
ARC
  5
22A
  8
0
  6
CONTINUOUS
 62
     7
 10
51.1733329125
 20
72.7452957928
 30
0.0
 40
59.80072183118572
 50
168.4877862107
 51
173.3596969809
  0
POLYLINE
  5
22B
  8
0
  6
CONTINUOUS
 62
     7
 66
     1
 10
0.0
 20
0.0
 30
0.0
  0
VERTEX
  5
732
  8
0
  6
CONTINUOUS
 62
     7
 10
-7.4231845268
 20
84.6857664036
 30
0.0
  0
VERTEX
  5
733
  8
0
  6
CONTINUOUS
 62
     7
 10
-7.0257645973
 20
86.1961302208
 30
0.0
  0
VERTEX
  5
734
  8
0
  6
CONTINUOUS
 62
     7
 10
-6.5926295647
 20
87.7064895677
 30
0.0
  0
SEQEND
  5
867
  8
0
  6
CONTINUOUS
 62
     7
  0
POLYLINE
  5
22C
  8
0
  6
CONTINUOUS
 62
     7
 66
     1
 10
0.0
 20
0.0
 30
0.0
  0
VERTEX
  5
735
  8
0
  6
CONTINUOUS
 62
     7
 10
-8.6232406029
 20
33.0353823351
 30
0.0
  0
VERTEX
  5
736
  8
0
  6
CONTINUOUS
 62
     7
 10
-8.6232406029
 20
33.0607083487
 30
0.0
  0
VERTEX
  5
737
  8
0
  6
CONTINUOUS
 62
     7
 10
-8.6230737099
 20
35.4737189459
 30
0.0
  0
VERTEX
  5
738
  8
0
  6
CONTINUOUS
 62
     7
 10
-8.6226207146
 20
37.8621843504
 30
0.0
  0
VERTEX
  5
739
  8
0
  6
CONTINUOUS
 62
     7
 10
-8.6222392448
 20
40.2281013178
 30
0.0
  0
VERTEX
  5
73A
  8
0
  6
CONTINUOUS
 62
     7
 10
-8.6223346123
 20
42.5829258608
 30
0.0
  0
VERTEX
  5
73B
  8
0
  6
CONTINUOUS
 62
     7
 10
-8.6231929192
 20
44.6910646605
 30
0.0
  0
SEQEND
  5
866
  8
0
  6
CONTINUOUS
 62
     7
  0
ARC
  5
22D
  8
0
  6
CONTINUOUS
 62
     7
 10
59.9324033163
 20
32.8977899427
 30
0.0
 40
6.645889545294317
 50
292.5444663561
 51
1.1781289845
  0
ARC
  5
22E
  8
0
  6
CONTINUOUS
 62
     7
 10
-1.97577393
 20
32.901729922
 30
0.0
 40
6.648810129240311
 50
178.8481796205
 51
250.6420887517
  0
LINE
  5
22F
  8
0
  6
CONTINUOUS
 62
     7
 10
66.1768215767
 20
79.6865281509
 30
0.0
 11
66.1798614136
 21
79.6604079055
 31
0.0
  0
POLYLINE
  5
230
  8
0
  6
CONTINUOUS
 62
     7
 66
     1
 10
0.0
 20
0.0
 30
0.0
  0
VERTEX
  5
73C
  8
0
  6
CONTINUOUS
 62
     7
 10
65.3779643646
 20
84.6801337647
 30
0.0
  0
VERTEX
  5
73D
  8
0
  6
CONTINUOUS
 62
     7
 10
65.8301490417
 20
82.1942684101
 30
0.0
  0
VERTEX
  5
73E
  8
0
  6
CONTINUOUS
 62
     7
 10
66.1768215767
 20
79.6865281509
 30
0.0
  0
SEQEND
  5
865
  8
0
  6
CONTINUOUS
 62
     7
  0
POLYLINE
  5
231
  8
0
  6
CONTINUOUS
 62
     7
 66
     1
 10
0.0
 20
0.0
 30
0.0
  0
VERTEX
  5
73F
  8
0
  6
CONTINUOUS
 62
     7
 10
-8.2231742271
 20
79.6865281509
 30
0.0
  0
VERTEX
  5
740
  8
0
  6
CONTINUOUS
 62
     7
 10
-7.8772527107
 20
82.1896699118
 30
0.0
  0
VERTEX
  5
741
  8
0
  6
CONTINUOUS
 62
     7
 10
-7.424328936
 20
84.6801337647
 30
0.0
  0
SEQEND
  5
864
  8
0
  6
CONTINUOUS
 62
     7
  0
LINE
  5
232
  8
0
  6
CONTINUOUS
 62
     7
 10
-8.226225985
 20
79.6604079055
 30
0.0
 11
-8.2231742271
 21
79.6865281509
 31
0.0
  0
LINE
  5
233
  8
0
  6
CONTINUOUS
 62
     7
 10
66.5479916206
 20
74.6531930613
 30
0.0
 11
66.5768164269
 21
72.8025016235
 31
0.0
  0
LINE
  5
234
  8
0
  6
CONTINUOUS
 62
     7
 10
-8.6231929192
 20
72.8025016235
 30
0.0
 11
-8.5943681129
 21
74.6531930613
 31
0.0
  0
ARC
  5
235
  8
0
  6
CONTINUOUS
 62
     7
 10
360.8545868018
 20
85.8954473835
 30
0.0
 40
7.349221227328215
 50
115.901904995
 51
164.5641043464
  0
ARC
  5
236
  8
0
  6
CONTINUOUS
 62
     7
 10
388.9768200985
 20
26.2061030061
 30
0.0
 40
73.33116819455026
 50
64.7052243607
 51
115.2947756393
  0
ARC
  5
237
  8
0
  6
CONTINUOUS
 62
     7
 10
417.1150285722
 20
85.9087418163
 30
0.0
 40
7.330288847780435
 50
15.3689651349
 51
64.1650255237
  0
POLYLINE
  5
238
  8
0
  6
CONTINUOUS
 62
     7
 66
     1
 10
0.0
 20
0.0
 30
0.0
  0
VERTEX
  5
742
  8
0
  6
CONTINUOUS
 62
     7
 10
424.1831558815
 20
87.8515106486
 30
0.0
  0
VERTEX
  5
743
  8
0
  6
CONTINUOUS
 62
     7
 10
425.100232946
 20
84.5599067258
 30
0.0
  0
VERTEX
  5
744
  8
0
  6
CONTINUOUS
 62
     7
 10
425.7014053932
 20
81.2836316275
 30
0.0
  0
VERTEX
  5
745
  8
0
  6
CONTINUOUS
 62
     7
 10
426.0589378944
 20
77.9914912628
 30
0.0
  0
VERTEX
  5
746
  8
0
  6
CONTINUOUS
 62
     7
 10
426.2736815086
 20
74.6963080811
 30
0.0
  0
VERTEX
  5
747
  8
0
  6
CONTINUOUS
 62
     7
 10
426.3554352394
 20
71.398117845
 30
0.0
  0
VERTEX
  5
748
  8
0
  6
CONTINUOUS
 62
     7
 10
426.3522642723
 20
68.0972960638
 30
0.0
  0
VERTEX
  5
749
  8
0
  6
CONTINUOUS
 62
     7
 10
426.3251560799
 20
64.7970286059
 30
0.0
  0
VERTEX
  5
74A
  8
0
  6
CONTINUOUS
 62
     7
 10
426.3230103127
 20
61.4995119022
 30
0.0
  0
VERTEX
  5
74B
  8
0
  6
CONTINUOUS
 62
     7
 10
426.3699549309
 20
55.1793631958
 30
0.0
  0
VERTEX
  5
74C
  8
0
  6
CONTINUOUS
 62
     7
 10
426.4040249458
 20
48.8586333441
 30
0.0
  0
VERTEX
  5
74D
  8
0
  6
CONTINUOUS
 62
     7
 10
426.4130371681
 20
42.6054027723
 30
0.0
  0
VERTEX
  5
74E
  8
0
  6
CONTINUOUS
 62
     7
 10
426.4148491493
 20
40.7606807398
 30
0.0
  0
VERTEX
  5
74F
  8
0
  6
CONTINUOUS
 62
     7
 10
426.4193314186
 20
38.8931539702
 30
0.0
  0
VERTEX
  5
750
  8
0
  6
CONTINUOUS
 62
     7
 10
426.4285343758
 20
36.9977918314
 30
0.0
  0
VERTEX
  5
751
  8
0
  6
CONTINUOUS
 62
     7
 10
426.4445322624
 20
35.0702253031
 30
0.0
  0
VERTEX
  5
752
  8
0
  6
CONTINUOUS
 62
     7
 10
426.4686125389
 20
33.1016507792
 30
0.0
  0
SEQEND
  5
863
  8
0
  6
CONTINUOUS
 62
     7
  0
ARC
  5
239
  8
0
  6
CONTINUOUS
 62
     7
 10
419.7485229238
 20
32.9082485956
 30
0.0
 40
6.722872067803794
 50
275.3894977057
 51
1.6485004851
  0
ARC
  5
23A
  8
0
  6
CONTINUOUS
 62
     7
 10
388.976814138
 20
366.1459420199
 30
0.0
 40
341.3782914155709
 50
264.7219378813
 51
275.2780621187
  0
ARC
  5
23B
  8
0
  6
CONTINUOUS
 62
     7
 10
358.1951624209
 20
32.8994577091
 30
0.0
 40
6.713192277529913
 50
178.2740607887
 51
264.6879410205
  0
POLYLINE
  5
23C
  8
0
  6
CONTINUOUS
 62
     7
 66
     1
 10
0.0
 20
0.0
 30
0.0
  0
VERTEX
  5
753
  8
0
  6
CONTINUOUS
 62
     7
 10
351.4850157372
 20
33.1016507792
 30
0.0
  0
VERTEX
  5
754
  8
0
  6
CONTINUOUS
 62
     7
 10
351.5133279434
 20
35.4986754107
 30
0.0
  0
VERTEX
  5
755
  8
0
  6
CONTINUOUS
 62
     7
 10
351.5298741928
 20
37.8383663344
 30
0.0
  0
VERTEX
  5
756
  8
0
  6
CONTINUOUS
 62
     7
 10
351.5376704803
 20
40.1327696489
 30
0.0
  0
VERTEX
  5
757
  8
0
  6
CONTINUOUS
 62
     7
 10
351.5404599777
 20
42.3906412767
 30
0.0
  0
VERTEX
  5
758
  8
0
  6
CONTINUOUS
 62
     7
 10
351.5418666473
 20
44.621172254
 30
0.0
  0
VERTEX
  5
759
  8
0
  6
CONTINUOUS
 62
     7
 10
351.544775354
 20
46.8486097502
 30
0.0
  0
VERTEX
  5
75A
  8
0
  6
CONTINUOUS
 62
     7
 10
351.550318586
 20
49.0895119356
 30
0.0
  0
VERTEX
  5
75B
  8
0
  6
CONTINUOUS
 62
     7
 10
351.5846389404
 20
55.2955713915
 30
0.0
  0
VERTEX
  5
75C
  8
0
  6
CONTINUOUS
 62
     7
 10
351.6306298843
 20
61.4995119022
 30
0.0
  0
VERTEX
  5
75D
  8
0
  6
CONTINUOUS
 62
     7
 10
351.6284721962
 20
64.7970286059
 30
0.0
  0
VERTEX
  5
75E
  8
0
  6
CONTINUOUS
 62
     7
 10
351.6013759247
 20
68.0972960638
 30
0.0
  0
VERTEX
  5
75F
  8
0
  6
CONTINUOUS
 62
     7
 10
351.5982049576
 20
71.398117845
 30
0.0
  0
VERTEX
  5
760
  8
0
  6
CONTINUOUS
 62
     7
 10
351.6799586884
 20
74.6963080811
 30
0.0
  0
VERTEX
  5
761
  8
0
  6
CONTINUOUS
 62
     7
 10
351.8947142235
 20
77.9914912628
 30
0.0
  0
VERTEX
  5
762
  8
0
  6
CONTINUOUS
 62
     7
 10
352.2522348038
 20
81.2836316275
 30
0.0
  0
VERTEX
  5
763
  8
0
  6
CONTINUOUS
 62
     7
 10
352.853407251
 20
84.5599067258
 30
0.0
  0
VERTEX
  5
764
  8
0
  6
CONTINUOUS
 62
     7
 10
353.7704723946
 20
87.8515106486
 30
0.0
  0
SEQEND
  5
862
  8
0
  6
CONTINUOUS
 62
     7
  0
ARC
  5
23D
  8
0
  6
CONTINUOUS
 62
     7
 10
388.9768200985
 20
26.2183836765
 30
0.0
 40
73.33972343160006
 50
64.3650346611
 51
115.6349653389
  0
ARC
  5
23E
  8
0
  6
CONTINUOUS
 62
     7
 10
417.4505960985
 20
85.7327346112
 30
0.0
 40
7.365070232349765
 50
15.544612597
 51
63.7661076188
  0
ARC
  5
23F
  8
0
  6
CONTINUOUS
 62
     7
 10
360.4852217585
 20
85.7475075617
 30
0.0
 40
7.343946902241322
 50
116.16011569
 51
164.5291640942
  0
POLYLINE
  5
240
  8
0
  6
CONTINUOUS
 62
     7
 66
     1
 10
0.0
 20
0.0
 30
0.0
  0
VERTEX
  5
765
  8
0
  6
CONTINUOUS
 62
     7
 10
424.5462673775
 20
87.7064895677
 30
0.0
  0
VERTEX
  5
766
  8
0
  6
CONTINUOUS
 62
     7
 10
424.9801891914
 20
86.193334763
 30
0.0
  0
VERTEX
  5
767
  8
0
  6
CONTINUOUS
 62
     7
 10
425.3781574837
 20
84.680176978
 30
0.0
  0
SEQEND
  5
861
  8
0
  6
CONTINUOUS
 62
     7
  0
ARC
  5
241
  8
0
  6
CONTINUOUS
 62
     7
 10
366.7368506626
 20
72.7383540185
 30
0.0
 40
59.84468731089841
 50
6.6420936952
 51
11.5104231132
  0
POLYLINE
  5
242
  8
0
  6
CONTINUOUS
 62
     7
 66
     1
 10
0.0
 20
0.0
 30
0.0
  0
VERTEX
  5
768
  8
0
  6
CONTINUOUS
 62
     7
 10
426.1795776955
 20
79.6603751229
 30
0.0
  0
VERTEX
  5
769
  8
0
  6
CONTINUOUS
 62
     7
 10
426.403834211
 20
77.1569547104
 30
0.0
  0
VERTEX
  5
76A
  8
0
  6
CONTINUOUS
 62
     7
 10
426.5483397118
 20
74.6532079624
 30
0.0
  0
SEQEND
  5
860
  8
0
  6
CONTINUOUS
 62
     7
  0
LINE
  5
243
  8
0
  6
CONTINUOUS
 62
     7
 10
426.576830732
 20
72.8003379749
 30
0.0
 11
426.5480059258
 21
74.6531930613
 31
0.0
  0
LINE
  5
244
  8
0
  6
CONTINUOUS
 62
     7
 10
426.576830732
 20
64.6887806105
 30
0.0
 11
426.576830732
 21
72.8003379749
 31
0.0
  0
POLYLINE
  5
245
  8
0
  6
CONTINUOUS
 62
     7
 66
     1
 10
0.0
 20
0.0
 30
0.0
  0
VERTEX
  5
76B
  8
0
  6
CONTINUOUS
 62
     7
 10
426.5768068901
 20
64.6887984919
 30
0.0
  0
VERTEX
  5
76C
  8
0
  6
CONTINUOUS
 62
     7
 10
426.5621203056
 20
61.5169343399
 30
0.0
  0
VERTEX
  5
76D
  8
0
  6
CONTINUOUS
 62
     7
 10
426.576830732
 20
54.6889093565
 30
0.0
  0
SEQEND
  5
85F
  8
0
  6
CONTINUOUS
 62
     7
  0
POLYLINE
  5
246
  8
0
  6
CONTINUOUS
 62
     7
 66
     1
 10
0.0
 20
0.0
 30
0.0
  0
VERTEX
  5
76E
  8
0
  6
CONTINUOUS
 62
     7
 10
426.5768784157
 20
33.0344346212
 30
0.0
  0
VERTEX
  5
76F
  8
0
  6
CONTINUOUS
 62
     7
 10
426.5768784157
 20
33.342376058
 30
0.0
  0
VERTEX
  5
770
  8
0
  6
CONTINUOUS
 62
     7
 10
426.576663839
 20
35.7542243647
 30
0.0
  0
VERTEX
  5
771
  8
0
  6
CONTINUOUS
 62
     7
 10
426.5761870018
 20
38.1387797045
 30
0.0
  0
VERTEX
  5
772
  8
0
  6
CONTINUOUS
 62
     7
 10
426.5758532158
 20
40.5021277117
 30
0.0
  0
VERTEX
  5
773
  8
0
  6
CONTINUOUS
 62
     7
 10
426.577164518
 20
45.2109780954
 30
0.0
  0
VERTEX
  5
774
  8
0
  6
CONTINUOUS
 62
     7
 10
426.5806454292
 20
49.9448803114
 30
0.0
  0
VERTEX
  5
775
  8
0
  6
CONTINUOUS
 62
     7
 10
426.576830732
 20
54.6889093565
 30
0.0
  0
SEQEND
  5
85E
  8
0
  6
CONTINUOUS
 62
     7
  0
LINE
  5
247
  8
0
  6
CONTINUOUS
 62
     7
 10
351.376821386
 20
54.6889093565
 30
0.0
 11
351.376821386
 21
44.6910646605
 31
0.0
  0
POLYLINE
  5
248
  8
0
  6
CONTINUOUS
 62
     7
 66
     1
 10
0.0
 20
0.0
 30
0.0
  0
VERTEX
  5
776
  8
0
  6
CONTINUOUS
 62
     7
 10
351.376821386
 20
54.6889093565
 30
0.0
  0
VERTEX
  5
777
  8
0
  6
CONTINUOUS
 62
     7
 10
351.3915318123
 20
61.5169343399
 30
0.0
  0
VERTEX
  5
778
  8
0
  6
CONTINUOUS
 62
     7
 10
351.376821386
 20
64.6887984919
 30
0.0
  0
SEQEND
  5
85D
  8
0
  6
CONTINUOUS
 62
     7
  0
LINE
  5
249
  8
0
  6
CONTINUOUS
 62
     7
 10
351.376821386
 20
72.8003379749
 30
0.0
 11
351.376821386
 21
64.6887806105
 31
0.0
  0
LINE
  5
24A
  8
0
  6
CONTINUOUS
 62
     7
 10
351.4056461922
 20
74.6531930613
 30
0.0
 11
351.376821386
 21
72.8003379749
 31
0.0
  0
POLYLINE
  5
24B
  8
0
  6
CONTINUOUS
 62
     7
 66
     1
 10
0.0
 20
0.0
 30
0.0
  0
VERTEX
  5
779
  8
0
  6
CONTINUOUS
 62
     7
 10
351.4053004852
 20
74.6532079624
 30
0.0
  0
VERTEX
  5
77A
  8
0
  6
CONTINUOUS
 62
     7
 10
351.549805986
 20
77.1569547104
 30
0.0
  0
VERTEX
  5
77B
  8
0
  6
CONTINUOUS
 62
     7
 10
351.7740625015
 20
79.6603751229
 30
0.0
  0
SEQEND
  5
85C
  8
0
  6
CONTINUOUS
 62
     7
  0
ARC
  5
24C
  8
0
  6
CONTINUOUS
 62
     7
 10
411.1733352967
 20
72.7452957928
 30
0.0
 40
59.80072183117026
 50
168.4877862107
 51
173.3596969809
  0
POLYLINE
  5
24D
  8
0
  6
CONTINUOUS
 62
     7
 66
     1
 10
0.0
 20
0.0
 30
0.0
  0
VERTEX
  5
77C
  8
0
  6
CONTINUOUS
 62
     7
 10
352.5768178574
 20
84.6857664036
 30
0.0
  0
VERTEX
  5
77D
  8
0
  6
CONTINUOUS
 62
     7
 10
352.9742497078
 20
86.1961302208
 30
0.0
  0
VERTEX
  5
77E
  8
0
  6
CONTINUOUS
 62
     7
 10
353.4073728195
 20
87.7064895677
 30
0.0
  0
SEQEND
  5
85B
  8
0
  6
CONTINUOUS
 62
     7
  0
POLYLINE
  5
24E
  8
0
  6
CONTINUOUS
 62
     7
 66
     1
 10
0.0
 20
0.0
 30
0.0
  0
VERTEX
  5
77F
  8
0
  6
CONTINUOUS
 62
     7
 10
351.3767498604
 20
33.0353823351
 30
0.0
  0
VERTEX
  5
780
  8
0
  6
CONTINUOUS
 62
     7
 10
351.3767498604
 20
33.0607083487
 30
0.0
  0
VERTEX
  5
781
  8
0
  6
CONTINUOUS
 62
     7
 10
351.3769167534
 20
35.4737189459
 30
0.0
  0
VERTEX
  5
782
  8
0
  6
CONTINUOUS
 62
     7
 10
351.3773816696
 20
37.8621843504
 30
0.0
  0
VERTEX
  5
783
  8
0
  6
CONTINUOUS
 62
     7
 10
351.3777750603
 20
40.2281013178
 30
0.0
  0
VERTEX
  5
784
  8
0
  6
CONTINUOUS
 62
     7
 10
351.3776677719
 20
42.5829258608
 30
0.0
  0
VERTEX
  5
785
  8
0
  6
CONTINUOUS
 62
     7
 10
351.376821386
 20
44.6910646605
 30
0.0
  0
SEQEND
  5
85A
  8
0
  6
CONTINUOUS
 62
     7
  0
ARC
  5
24F
  8
0
  6
CONTINUOUS
 62
     7
 10
419.9324159463
 20
32.8977706302
 30
0.0
 40
6.645867780291648
 50
292.5444486095
 51
1.1782993772
  0
ARC
  5
250
  8
0
  6
CONTINUOUS
 62
     7
 10
358.0242695256
 20
32.9017707783
 30
0.0
 40
6.64886228967934
 50
178.8485408031
 51
250.6418715343
  0
LINE
  5
251
  8
0
  6
CONTINUOUS
 62
     7
 10
426.1768120399
 20
79.6865281509
 30
0.0
 11
426.1798637978
 21
79.6604079055
 31
0.0
  0
POLYLINE
  5
252
  8
0
  6
CONTINUOUS
 62
     7
 66
     1
 10
0.0
 20
0.0
 30
0.0
  0
VERTEX
  5
786
  8
0
  6
CONTINUOUS
 62
     7
 10
425.3779667488
 20
84.6801337647
 30
0.0
  0
VERTEX
  5
787
  8
0
  6
CONTINUOUS
 62
     7
 10
425.8301514259
 20
82.1942684101
 30
0.0
  0
VERTEX
  5
788
  8
0
  6
CONTINUOUS
 62
     7
 10
426.1768120399
 20
79.6865281509
 30
0.0
  0
SEQEND
  5
859
  8
0
  6
CONTINUOUS
 62
     7
  0
POLYLINE
  5
253
  8
0
  6
CONTINUOUS
 62
     7
 66
     1
 10
0.0
 20
0.0
 30
0.0
  0
VERTEX
  5
789
  8
0
  6
CONTINUOUS
 62
     7
 10
351.7768162361
 20
79.6865281509
 30
0.0
  0
VERTEX
  5
78A
  8
0
  6
CONTINUOUS
 62
     7
 10
352.1227496735
 20
82.1896699118
 30
0.0
  0
VERTEX
  5
78B
  8
0
  6
CONTINUOUS
 62
     7
 10
352.5756734482
 20
84.6801337647
 30
0.0
  0
SEQEND
  5
858
  8
0
  6
CONTINUOUS
 62
     7
  0
LINE
  5
254
  8
0
  6
CONTINUOUS
 62
     7
 10
351.7737763992
 20
79.6604079055
 30
0.0
 11
351.7768162361
 21
79.6865281509
 31
0.0
  0
LINE
  5
255
  8
0
  6
CONTINUOUS
 62
     7
 10
426.5480059258
 20
74.6531930613
 30
0.0
 11
426.576830732
 21
72.8025016235
 31
0.0
  0
LINE
  5
256
  8
0
  6
CONTINUOUS
 62
     7
 10
351.376821386
 20
72.8025016235
 30
0.0
 11
351.4056461922
 21
74.6531930613
 31
0.0
  0
ARC
  5
257
  8
0
  6
CONTINUOUS
 62
     7
 10
120.8545817194
 20
85.895444526
 30
0.0
 40
7.349220536149701
 50
115.9018429008
 51
164.5640797475
  0
ARC
  5
258
  8
0
  6
CONTINUOUS
 62
     7
 10
148.9768180123
 20
26.2061302854
 30
0.0
 40
73.33114162064584
 50
64.7052184116
 51
115.2947815884
  0
ARC
  5
259
  8
0
  6
CONTINUOUS
 62
     7
 10
177.1150923613
 20
85.9087890443
 30
0.0
 40
7.330215684938153
 50
15.3687394777
 51
64.1653595472
  0
POLYLINE
  5
25A
  8
0
  6
CONTINUOUS
 62
     7
 66
     1
 10
0.0
 20
0.0
 30
0.0
  0
VERTEX
  5
78C
  8
0
  6
CONTINUOUS
 62
     7
 10
184.183162736
 20
87.8515106486
 30
0.0
  0
VERTEX
  5
78D
  8
0
  6
CONTINUOUS
 62
     7
 10
185.1002293697
 20
84.5599067258
 30
0.0
  0
VERTEX
  5
78E
  8
0
  6
CONTINUOUS
 62
     7
 10
185.7014033071
 20
81.2836316275
 30
0.0
  0
VERTEX
  5
78F
  8
0
  6
CONTINUOUS
 62
     7
 10
186.0589253775
 20
77.9914912628
 30
0.0
  0
VERTEX
  5
790
  8
0
  6
CONTINUOUS
 62
     7
 10
186.2736838928
 20
74.6963080811
 30
0.0
  0
VERTEX
  5
791
  8
0
  6
CONTINUOUS
 62
     7
 10
186.355430173
 20
71.398117845
 30
0.0
  0
VERTEX
  5
792
  8
0
  6
CONTINUOUS
 62
     7
 10
186.3522651664
 20
68.0972960638
 30
0.0
  0
VERTEX
  5
793
  8
0
  6
CONTINUOUS
 62
     7
 10
186.3251644245
 20
64.7970286059
 30
0.0
  0
VERTEX
  5
794
  8
0
  6
CONTINUOUS
 62
     7
 10
186.3230067364
 20
61.4995119022
 30
0.0
  0
VERTEX
  5
795
  8
0
  6
CONTINUOUS
 62
     7
 10
186.369943904
 20
55.1793631958
 30
0.0
  0
VERTEX
  5
796
  8
0
  6
CONTINUOUS
 62
     7
 10
186.4040332905
 20
48.8586333441
 30
0.0
  0
VERTEX
  5
797
  8
0
  6
CONTINUOUS
 62
     7
 10
186.4130365721
 20
42.6054027723
 30
0.0
  0
VERTEX
  5
798
  8
0
  6
CONTINUOUS
 62
     7
 10
186.4148530236
 20
40.7606807398
 30
0.0
  0
VERTEX
  5
799
  8
0
  6
CONTINUOUS
 62
     7
 10
186.4193427435
 20
38.8931539702
 30
0.0
  0
VERTEX
  5
79A
  8
0
  6
CONTINUOUS
 62
     7
 10
186.4285382501
 20
36.9977918314
 30
0.0
  0
VERTEX
  5
79B
  8
0
  6
CONTINUOUS
 62
     7
 10
186.444527196
 20
35.0702253031
 30
0.0
  0
VERTEX
  5
79C
  8
0
  6
CONTINUOUS
 62
     7
 10
186.4686223737
 20
33.1016507792
 30
0.0
  0
SEQEND
  5
857
  8
0
  6
CONTINUOUS
 62
     7
  0
ARC
  5
25B
  8
0
  6
CONTINUOUS
 62
     7
 10
179.7484778755
 20
32.9082972563
 30
0.0
 40
6.722925528500828
 50
275.3899117811
 51
1.648072493
  0
ARC
  5
25C
  8
0
  6
CONTINUOUS
 62
     7
 10
148.9768195025
 20
366.146031719
 30
0.0
 40
341.3783810085736
 50
264.7219387681
 51
275.2780612319
  0
ARC
  5
25D
  8
0
  6
CONTINUOUS
 62
     7
 10
118.1951609939
 20
32.8994543394
 30
0.0
 40
6.713188569510106
 50
178.2740310627
 51
264.6879707465
  0
POLYLINE
  5
25E
  8
0
  6
CONTINUOUS
 62
     7
 66
     1
 10
0.0
 20
0.0
 30
0.0
  0
VERTEX
  5
79D
  8
0
  6
CONTINUOUS
 62
     7
 10
111.4850181213
 20
33.1016507792
 30
0.0
  0
VERTEX
  5
79E
  8
0
  6
CONTINUOUS
 62
     7
 10
111.5133362881
 20
35.4986754107
 30
0.0
  0
VERTEX
  5
79F
  8
0
  6
CONTINUOUS
 62
     7
 10
111.5298706165
 20
37.8383663344
 30
0.0
  0
VERTEX
  5
7A0
  8
0
  6
CONTINUOUS
 62
     7
 10
111.5376669041
 20
40.1327696489
 30
0.0
  0
VERTEX
  5
7A1
  8
0
  6
CONTINUOUS
 62
     7
 10
111.5404623619
 20
42.3906412767
 30
0.0
  0
VERTEX
  5
7A2
  8
0
  6
CONTINUOUS
 62
     7
 10
111.5418630711
 20
44.621172254
 30
0.0
  0
VERTEX
  5
7A3
  8
0
  6
CONTINUOUS
 62
     7
 10
111.5447717777
 20
46.8486097502
 30
0.0
  0
VERTEX
  5
7A4
  8
0
  6
CONTINUOUS
 62
     7
 10
111.5503150097
 20
49.0895119356
 30
0.0
  0
VERTEX
  5
7A5
  8
0
  6
CONTINUOUS
 62
     7
 10
111.5846413246
 20
55.2955713915
 30
0.0
  0
VERTEX
  5
7A6
  8
0
  6
CONTINUOUS
 62
     7
 10
111.6306322685
 20
61.4995119022
 30
0.0
  0
VERTEX
  5
7A7
  8
0
  6
CONTINUOUS
 62
     7
 10
111.6284745804
 20
64.7970286059
 30
0.0
  0
VERTEX
  5
7A8
  8
0
  6
CONTINUOUS
 62
     7
 10
111.6013723484
 20
68.0972960638
 30
0.0
  0
VERTEX
  5
7A9
  8
0
  6
CONTINUOUS
 62
     7
 10
111.5982073418
 20
71.398117845
 30
0.0
  0
VERTEX
  5
7AA
  8
0
  6
CONTINUOUS
 62
     7
 10
111.6799551121
 20
74.6963080811
 30
0.0
  0
VERTEX
  5
7AB
  8
0
  6
CONTINUOUS
 62
     7
 10
111.8947106472
 20
77.9914912628
 30
0.0
  0
VERTEX
  5
7AC
  8
0
  6
CONTINUOUS
 62
     7
 10
112.252237188
 20
81.2836316275
 30
0.0
  0
VERTEX
  5
7AD
  8
0
  6
CONTINUOUS
 62
     7
 10
112.8534096352
 20
84.5599067258
 30
0.0
  0
VERTEX
  5
7AE
  8
0
  6
CONTINUOUS
 62
     7
 10
113.7704747787
 20
87.8515106486
 30
0.0
  0
SEQEND
  5
856
  8
0
  6
CONTINUOUS
 62
     7
  0
ARC
  5
25F
  8
0
  6
CONTINUOUS
 62
     7
 10
148.9768180123
 20
26.2184100074
 30
0.0
 40
73.33969775843528
 50
64.3650289101
 51
115.6349710899
  0
ARC
  5
260
  8
0
  6
CONTINUOUS
 62
     7
 10
177.4506115637
 20
85.7327505827
 30
0.0
 40
7.365046171547807
 50
15.544535697
 51
63.7662063664
  0
ARC
  5
261
  8
0
  6
CONTINUOUS
 62
     7
 10
120.4851852772
 20
85.7475397773
 30
0.0
 40
7.343900851565595
 50
116.1599543402
 51
164.5293254441
  0
POLYLINE
  5
262
  8
0
  6
CONTINUOUS
 62
     7
 66
     1
 10
0.0
 20
0.0
 30
0.0
  0
VERTEX
  5
7AF
  8
0
  6
CONTINUOUS
 62
     7
 10
184.5462623111
 20
87.7064895677
 30
0.0
  0
VERTEX
  5
7B0
  8
0
  6
CONTINUOUS
 62
     7
 10
184.9801796547
 20
86.193334763
 30
0.0
  0
VERTEX
  5
7B1
  8
0
  6
CONTINUOUS
 62
     7
 10
185.3781524173
 20
84.680176978
 30
0.0
  0
SEQEND
  5
855
  8
0
  6
CONTINUOUS
 62
     7
  0
ARC
  5
263
  8
0
  6
CONTINUOUS
 62
     7
 10
126.7336802939
 20
72.737917999
 30
0.0
 40
59.84788180094809
 50
6.6421578114
 51
11.510226316
  0
POLYLINE
  5
264
  8
0
  6
CONTINUOUS
 62
     7
 66
     1
 10
0.0
 20
0.0
 30
0.0
  0
VERTEX
  5
7B2
  8
0
  6
CONTINUOUS
 62
     7
 10
186.1795726291
 20
79.6603751229
 30
0.0
  0
VERTEX
  5
7B3
  8
0
  6
CONTINUOUS
 62
     7
 10
186.4038380853
 20
77.1569547104
 30
0.0
  0
VERTEX
  5
7B4
  8
0
  6
CONTINUOUS
 62
     7
 10
186.5483435861
 20
74.6532079624
 30
0.0
  0
SEQEND
  5
854
  8
0
  6
CONTINUOUS
 62
     7
  0
LINE
  5
265
  8
0
  6
CONTINUOUS
 62
     7
 10
186.576818215
 20
72.8003379749
 30
0.0
 11
186.547996389
 21
74.6531930613
 31
0.0
  0
LINE
  5
266
  8
0
  6
CONTINUOUS
 62
     7
 10
186.576818215
 20
64.6887806105
 30
0.0
 11
186.576818215
 21
72.8003379749
 31
0.0
  0
POLYLINE
  5
267
  8
0
  6
CONTINUOUS
 62
     7
 66
     1
 10
0.0
 20
0.0
 30
0.0
  0
VERTEX
  5
7B5
  8
0
  6
CONTINUOUS
 62
     7
 10
186.576818215
 20
64.6887984919
 30
0.0
  0
VERTEX
  5
7B6
  8
0
  6
CONTINUOUS
 62
     7
 10
186.5621092788
 20
61.5169343399
 30
0.0
  0
VERTEX
  5
7B7
  8
0
  6
CONTINUOUS
 62
     7
 10
186.5768226853
 20
54.6889093565
 30
0.0
  0
SEQEND
  5
853
  8
0
  6
CONTINUOUS
 62
     7
  0
POLYLINE
  5
268
  8
0
  6
CONTINUOUS
 62
     7
 66
     1
 10
0.0
 20
0.0
 30
0.0
  0
VERTEX
  5
7B8
  8
0
  6
CONTINUOUS
 62
     7
 10
186.5768897406
 20
33.0344346212
 30
0.0
  0
VERTEX
  5
7B9
  8
0
  6
CONTINUOUS
 62
     7
 10
186.5768882504
 20
33.342376058
 30
0.0
  0
VERTEX
  5
7BA
  8
0
  6
CONTINUOUS
 62
     7
 10
186.5766736737
 20
35.7542243647
 30
0.0
  0
VERTEX
  5
7BB
  8
0
  6
CONTINUOUS
 62
     7
 10
186.5761968366
 20
38.1387797045
 30
0.0
  0
VERTEX
  5
7BC
  8
0
  6
CONTINUOUS
 62
     7
 10
186.5758466593
 20
40.5021277117
 30
0.0
  0
VERTEX
  5
7BD
  8
0
  6
CONTINUOUS
 62
     7
 10
186.577165412
 20
45.2109780954
 30
0.0
  0
VERTEX
  5
7BE
  8
0
  6
CONTINUOUS
 62
     7
 10
186.5806403628
 20
49.9448803114
 30
0.0
  0
VERTEX
  5
7BF
  8
0
  6
CONTINUOUS
 62
     7
 10
186.576818215
 20
54.6889093565
 30
0.0
  0
SEQEND
  5
852
  8
0
  6
CONTINUOUS
 62
     7
  0
LINE
  5
269
  8
0
  6
CONTINUOUS
 62
     7
 10
111.3768178097
 20
54.6889093565
 30
0.0
 11
111.3768178097
 21
44.6910646605
 31
0.0
  0
POLYLINE
  5
26A
  8
0
  6
CONTINUOUS
 62
     7
 66
     1
 10
0.0
 20
0.0
 30
0.0
  0
VERTEX
  5
7C0
  8
0
  6
CONTINUOUS
 62
     7
 10
111.3768178097
 20
54.6889093565
 30
0.0
  0
VERTEX
  5
7C1
  8
0
  6
CONTINUOUS
 62
     7
 10
111.391528236
 20
61.5169343399
 30
0.0
  0
VERTEX
  5
7C2
  8
0
  6
CONTINUOUS
 62
     7
 10
111.3768178097
 20
64.6887984919
 30
0.0
  0
SEQEND
  5
851
  8
0
  6
CONTINUOUS
 62
     7
  0
LINE
  5
26B
  8
0
  6
CONTINUOUS
 62
     7
 10
111.3768178097
 20
72.8003379749
 30
0.0
 11
111.3768178097
 21
64.6887806105
 31
0.0
  0
LINE
  5
26C
  8
0
  6
CONTINUOUS
 62
     7
 10
111.4056426159
 20
74.6531930613
 30
0.0
 11
111.3768178097
 21
72.8003379749
 31
0.0
  0
POLYLINE
  5
26D
  8
0
  6
CONTINUOUS
 62
     7
 66
     1
 10
0.0
 20
0.0
 30
0.0
  0
VERTEX
  5
7C3
  8
0
  6
CONTINUOUS
 62
     7
 10
111.405296909
 20
74.6532079624
 30
0.0
  0
VERTEX
  5
7C4
  8
0
  6
CONTINUOUS
 62
     7
 10
111.5498024097
 20
77.1569547104
 30
0.0
  0
VERTEX
  5
7C5
  8
0
  6
CONTINUOUS
 62
     7
 10
111.7740648857
 20
79.6603751229
 30
0.0
  0
SEQEND
  5
850
  8
0
  6
CONTINUOUS
 62
     7
  0
ARC
  5
26E
  8
0
  6
CONTINUOUS
 62
     7
 10
171.1768329552
 20
72.7448070094
 30
0.0
 40
59.80425017894203
 50
168.4879968058
 51
173.3596190667
  0
POLYLINE
  5
26F
  8
0
  6
CONTINUOUS
 62
     7
 66
     1
 10
0.0
 20
0.0
 30
0.0
  0
VERTEX
  5
7C6
  8
0
  6
CONTINUOUS
 62
     7
 10
112.5768202415
 20
84.6857664036
 30
0.0
  0
VERTEX
  5
7C7
  8
0
  6
CONTINUOUS
 62
     7
 10
112.9742461315
 20
86.1961302208
 30
0.0
  0
VERTEX
  5
7C8
  8
0
  6
CONTINUOUS
 62
     7
 10
113.4073752037
 20
87.7064895677
 30
0.0
  0
SEQEND
  5
84F
  8
0
  6
CONTINUOUS
 62
     7
  0
POLYLINE
  5
270
  8
0
  6
CONTINUOUS
 62
     7
 66
     1
 10
0.0
 20
0.0
 30
0.0
  0
VERTEX
  5
7C9
  8
0
  6
CONTINUOUS
 62
     7
 10
111.3767462841
 20
33.0353823351
 30
0.0
  0
VERTEX
  5
7CA
  8
0
  6
CONTINUOUS
 62
     7
 10
111.3767462841
 20
33.0607083487
 30
0.0
  0
VERTEX
  5
7CB
  8
0
  6
CONTINUOUS
 62
     7
 10
111.3769191376
 20
35.4737189459
 30
0.0
  0
VERTEX
  5
7CC
  8
0
  6
CONTINUOUS
 62
     7
 10
111.3773840538
 20
37.8621843504
 30
0.0
  0
VERTEX
  5
7CD
  8
0
  6
CONTINUOUS
 62
     7
 10
111.377771484
 20
40.2281013178
 30
0.0
  0
VERTEX
  5
7CE
  8
0
  6
CONTINUOUS
 62
     7
 10
111.3776641956
 20
42.5829258608
 30
0.0
  0
VERTEX
  5
7CF
  8
0
  6
CONTINUOUS
 62
     7
 10
111.3768178097
 20
44.6910646605
 30
0.0
  0
SEQEND
  5
84E
  8
0
  6
CONTINUOUS
 62
     7
  0
ARC
  5
271
  8
0
  6
CONTINUOUS
 62
     7
 10
179.9324061967
 20
32.8977916501
 30
0.0
 40
6.645888418137665
 50
292.5444045557
 51
1.1781144618
  0
ARC
  5
272
  8
0
  6
CONTINUOUS
 62
     7
 10
118.0242806794
 20
32.9017809951
 30
0.0
 40
6.648876811488235
 50
178.848631378
 51
250.6417809594
  0
LINE
  5
273
  8
0
  6
CONTINUOUS
 62
     7
 10
186.1768188945
 20
79.6865281509
 30
0.0
 11
186.1798587314
 21
79.6604079055
 31
0.0
  0
POLYLINE
  5
274
  8
0
  6
CONTINUOUS
 62
     7
 66
     1
 10
0.0
 20
0.0
 30
0.0
  0
VERTEX
  5
7D0
  8
0
  6
CONTINUOUS
 62
     7
 10
185.3779676429
 20
84.6801337647
 30
0.0
  0
VERTEX
  5
7D1
  8
0
  6
CONTINUOUS
 62
     7
 10
185.8301538101
 20
82.1942684101
 30
0.0
  0
VERTEX
  5
7D2
  8
0
  6
CONTINUOUS
 62
     7
 10
186.1768188945
 20
79.6865281509
 30
0.0
  0
SEQEND
  5
84D
  8
0
  6
CONTINUOUS
 62
     7
  0
POLYLINE
  5
275
  8
0
  6
CONTINUOUS
 62
     7
 66
     1
 10
0.0
 20
0.0
 30
0.0
  0
VERTEX
  5
7D3
  8
0
  6
CONTINUOUS
 62
     7
 10
111.7768186203
 20
79.6865281509
 30
0.0
  0
VERTEX
  5
7D4
  8
0
  6
CONTINUOUS
 62
     7
 10
112.1227460972
 20
82.1896699118
 30
0.0
  0
VERTEX
  5
7D5
  8
0
  6
CONTINUOUS
 62
     7
 10
112.5756698719
 20
84.6801337647
 30
0.0
  0
SEQEND
  5
84C
  8
0
  6
CONTINUOUS
 62
     7
  0
LINE
  5
276
  8
0
  6
CONTINUOUS
 62
     7
 10
111.7737787834
 20
79.6604079055
 30
0.0
 11
111.7768186203
 21
79.6865281509
 31
0.0
  0
LINE
  5
277
  8
0
  6
CONTINUOUS
 62
     7
 10
186.547996389
 20
74.6531930613
 30
0.0
 11
186.576818215
 21
72.8025016235
 31
0.0
  0
LINE
  5
278
  8
0
  6
CONTINUOUS
 62
     7
 10
111.3768178097
 20
72.8025016235
 30
0.0
 11
111.4056426159
 21
74.6531930613
 31
0.0
  0
LINE
  5
279
  8
0
  6
CONTINUOUS
 62
     7
 10
112.15114175
 20
98.4949053126
 30
0.0
 11
112.15114175
 21
98.4380860674
 31
0.0
  0
LINE
  5
27A
  8
0
  6
CONTINUOUS
 62
     7
 10
112.15114175
 20
98.4380860674
 30
0.0
 11
112.3726624123
 21
98.4228481399
 31
0.0
  0
LINE
  5
27B
  8
0
  6
CONTINUOUS
 62
     7
 10
111.3733965031
 20
37.2949031042
 30
0.0
 11
111.2768190971
 21
37.2949031042
 31
0.0
  0
LINE
  5
27C
  8
0
  6
CONTINUOUS
 62
     7
 10
111.2768190971
 20
37.2949031042
 30
0.0
 11
111.2768190971
 21
98.4949053126
 31
0.0
  0
LINE
  5
27D
  8
0
  6
CONTINUOUS
 62
     7
 10
111.2768190971
 20
98.4949053126
 30
0.0
 11
112.15114175
 21
98.4949053126
 31
0.0
  0
ARC
  5
27E
  8
0
  6
CONTINUOUS
 62
     7
 10
112.9407782113
 20
96.3833214439
 30
0.0
 40
1.996145972237517
 50
359.8798642969
 51
86.0293776011
  0
LINE
  5
27F
  8
0
  6
CONTINUOUS
 62
     7
 10
114.9369197956
 20
96.3791360008
 30
0.0
 11
114.9369197956
 21
91.9766147482
 31
0.0
  0
ARC
  5
280
  8
0
  6
CONTINUOUS
 62
     7
 10
116.1387123714
 20
91.975831396
 30
0.0
 40
1.20179283104725
 50
179.9626534821
 51
232.2494355137
  0
LINE
  5
281
  8
0
  6
CONTINUOUS
 62
     7
 10
113.0790012947
 20
98.3746760385
 30
0.0
 11
112.3726624123
 21
98.4228481399
 31
0.0
  0
LINE
  5
282
  8
0
  6
CONTINUOUS
 62
     7
 10
111.2768190971
 20
98.4949053126
 30
0.0
 11
111.2768190971
 21
111.215021913
 31
0.0
  0
LINE
  5
283
  8
0
  6
CONTINUOUS
 62
     7
 10
112.0768207184
 20
111.215021913
 30
0.0
 11
112.0768207184
 21
98.4949053126
 31
0.0
  0
LINE
  5
284
  8
0
  6
CONTINUOUS
 62
     7
 10
111.2768190971
 20
112.394905542
 30
0.0
 11
112.0768207184
 21
112.394905542
 31
0.0
  0
LINE
  5
285
  8
0
  6
CONTINUOUS
 62
     7
 10
111.2768190971
 20
111.215021913
 30
0.0
 11
111.2768190971
 21
112.394905542
 31
0.0
  0
LINE
  5
286
  8
0
  6
CONTINUOUS
 62
     7
 10
112.0768207184
 20
112.394905542
 30
0.0
 11
112.0768207184
 21
111.215021913
 31
0.0
  0
LINE
  5
287
  8
0
  6
CONTINUOUS
 62
     7
 10
111.2768190971
 20
109.3949054228
 30
0.0
 11
106.4768212906
 21
109.3949054228
 31
0.0
  0
LINE
  5
288
  8
0
  6
CONTINUOUS
 62
     7
 10
106.4768212906
 20
109.3949054228
 30
0.0
 11
106.4768212906
 21
108.3949052589
 31
0.0
  0
LINE
  5
289
  8
0
  6
CONTINUOUS
 62
     7
 10
116.4768177143
 20
109.3949054228
 30
0.0
 11
116.4768177143
 21
108.3949052589
 31
0.0
  0
LINE
  5
28A
  8
0
  6
CONTINUOUS
 62
     7
 10
116.4768177143
 20
109.3949054228
 30
0.0
 11
112.0768207184
 21
109.3949054228
 31
0.0
  0
LINE
  5
28B
  8
0
  6
CONTINUOUS
 62
     7
 10
106.4768212906
 20
108.3949052589
 30
0.0
 11
106.4768212906
 21
99.194905241
 31
0.0
  0
LINE
  5
28C
  8
0
  6
CONTINUOUS
 62
     7
 10
116.4768177143
 20
108.3949052589
 30
0.0
 11
116.4768177143
 21
99.194905241
 31
0.0
  0
LINE
  5
28D
  8
0
  6
CONTINUOUS
 62
     7
 10
116.4768177143
 20
98.1949050771
 30
0.0
 11
113.7807088963
 21
98.1949050771
 31
0.0
  0
LINE
  5
28E
  8
0
  6
CONTINUOUS
 62
     7
 10
116.4768177143
 20
99.194905241
 30
0.0
 11
116.4768177143
 21
98.1949050771
 31
0.0
  0
LINE
  5
28F
  8
0
  6
CONTINUOUS
 62
     7
 10
111.2768190971
 20
98.1949050771
 30
0.0
 11
106.4768212906
 21
98.1949050771
 31
0.0
  0
LINE
  5
290
  8
0
  6
CONTINUOUS
 62
     7
 10
106.4768212906
 20
99.194905241
 30
0.0
 11
106.4768212906
 21
98.1949050771
 31
0.0
  0
LINE
  5
291
  8
0
  6
CONTINUOUS
 62
     7
 10
-7.848857058
 20
98.4949053126
 30
0.0
 11
-7.848857058
 21
98.4380860674
 31
0.0
  0
LINE
  5
292
  8
0
  6
CONTINUOUS
 62
     7
 10
-7.848857058
 20
98.4380860674
 30
0.0
 11
-7.6273423561
 21
98.4228481399
 31
0.0
  0
LINE
  5
293
  8
0
  6
CONTINUOUS
 62
     7
 10
-8.6266023048
 20
37.2949031042
 30
0.0
 11
-8.7231856712
 21
37.2949031042
 31
0.0
  0
LINE
  5
294
  8
0
  6
CONTINUOUS
 62
     7
 10
-8.7231856712
 20
37.2949031042
 30
0.0
 11
-8.7231856712
 21
98.4949053126
 31
0.0
  0
LINE
  5
295
  8
0
  6
CONTINUOUS
 62
     7
 10
-8.7231856712
 20
98.4949053126
 30
0.0
 11
-7.848857058
 21
98.4949053126
 31
0.0
  0
ARC
  5
296
  8
0
  6
CONTINUOUS
 62
     7
 10
-7.0592129207
 20
96.3833281775
 30
0.0
 40
1.996138310537437
 50
359.879670557
 51
86.0297546854
  0
LINE
  5
297
  8
0
  6
CONTINUOUS
 62
     7
 10
-5.0630790123
 20
96.3791360008
 30
0.0
 11
-5.0630790123
 21
91.9766147482
 31
0.0
  0
ARC
  5
298
  8
0
  6
CONTINUOUS
 62
     7
 10
-3.8613729425
 20
91.9757982274
 30
0.0
 40
1.201706347214631
 50
179.9610693616
 51
232.252177891
  0
LINE
  5
299
  8
0
  6
CONTINUOUS
 62
     7
 10
-6.9210034737
 20
98.3746760385
 30
0.0
 11
-7.6273423561
 21
98.4228481399
 31
0.0
  0
LINE
  5
29A
  8
0
  6
CONTINUOUS
 62
     7
 10
-8.7231856712
 20
98.4949053126
 30
0.0
 11
-8.7231856712
 21
111.215021913
 31
0.0
  0
LINE
  5
29B
  8
0
  6
CONTINUOUS
 62
     7
 10
-7.9231721291
 20
111.215021913
 30
0.0
 11
-7.9231721291
 21
98.4949053126
 31
0.0
  0
LINE
  5
29C
  8
0
  6
CONTINUOUS
 62
     7
 10
-8.7231856712
 20
112.394905542
 30
0.0
 11
-7.9231721291
 21
112.394905542
 31
0.0
  0
LINE
  5
29D
  8
0
  6
CONTINUOUS
 62
     7
 10
-8.7231856712
 20
111.215021913
 30
0.0
 11
-8.7231856712
 21
112.394905542
 31
0.0
  0
LINE
  5
29E
  8
0
  6
CONTINUOUS
 62
     7
 10
-7.9231721291
 20
112.394905542
 30
0.0
 11
-7.9231721291
 21
111.215021913
 31
0.0
  0
LINE
  5
29F
  8
0
  6
CONTINUOUS
 62
     7
 10
-3.5231810936
 20
109.3949054228
 30
0.0
 11
-3.5231810936
 21
108.3949052589
 31
0.0
  0
LINE
  5
2A0
  8
0
  6
CONTINUOUS
 62
     7
 10
-3.5231810936
 20
109.3949054228
 30
0.0
 11
-7.9231721291
 21
109.3949054228
 31
0.0
  0
LINE
  5
2A1
  8
0
  6
CONTINUOUS
 62
     7
 10
-8.7231856712
 20
109.3949054228
 30
0.0
 11
-13.5231715569
 21
109.3949054228
 31
0.0
  0
LINE
  5
2A2
  8
0
  6
CONTINUOUS
 62
     7
 10
-13.5231715569
 20
109.3949054228
 30
0.0
 11
-13.5231715569
 21
108.3949052589
 31
0.0
  0
LINE
  5
2A3
  8
0
  6
CONTINUOUS
 62
     7
 10
-3.5231810936
 20
108.3949052589
 30
0.0
 11
-3.5231810936
 21
99.194905241
 31
0.0
  0
LINE
  5
2A4
  8
0
  6
CONTINUOUS
 62
     7
 10
-13.5231715569
 20
108.3949052589
 30
0.0
 11
-13.5231715569
 21
99.194905241
 31
0.0
  0
LINE
  5
2A5
  8
0
  6
CONTINUOUS
 62
     7
 10
-3.5231810936
 20
98.1949050771
 30
0.0
 11
-6.2192899117
 21
98.1949050771
 31
0.0
  0
LINE
  5
2A6
  8
0
  6
CONTINUOUS
 62
     7
 10
-3.5231810936
 20
99.194905241
 30
0.0
 11
-3.5231810936
 21
98.1949050771
 31
0.0
  0
LINE
  5
2A7
  8
0
  6
CONTINUOUS
 62
     7
 10
-8.7231856712
 20
98.1949050771
 30
0.0
 11
-13.5231715569
 21
98.1949050771
 31
0.0
  0
LINE
  5
2A8
  8
0
  6
CONTINUOUS
 62
     7
 10
-13.5231715569
 20
99.194905241
 30
0.0
 11
-13.5231715569
 21
98.1949050771
 31
0.0
  0
LINE
  5
2A9
  8
0
  6
CONTINUOUS
 62
     7
 10
352.1511453262
 20
98.4949053126
 30
0.0
 11
352.1511453262
 21
98.4380860674
 31
0.0
  0
LINE
  5
2AA
  8
0
  6
CONTINUOUS
 62
     7
 10
351.3734000793
 20
37.2949031042
 30
0.0
 11
351.276816713
 21
37.2949031042
 31
0.0
  0
LINE
  5
2AB
  8
0
  6
CONTINUOUS
 62
     7
 10
351.276816713
 20
37.2949031042
 30
0.0
 11
351.276816713
 21
98.4949053126
 31
0.0
  0
LINE
  5
2AC
  8
0
  6
CONTINUOUS
 62
     7
 10
351.276816713
 20
98.4949053126
 30
0.0
 11
352.1511453262
 21
98.4949053126
 31
0.0
  0
LINE
  5
2AD
  8
0
  6
CONTINUOUS
 62
     7
 10
352.1511453262
 20
98.4380860674
 30
0.0
 11
352.3726600281
 21
98.4228481399
 31
0.0
  0
ARC
  5
2AE
  8
0
  6
CONTINUOUS
 62
     7
 10
352.9407758977
 20
96.3833155473
 30
0.0
 40
1.996151849803406
 50
359.8800339019
 51
86.0293913405
  0
LINE
  5
2AF
  8
0
  6
CONTINUOUS
 62
     7
 10
354.9369233719
 20
96.3791360008
 30
0.0
 11
354.9369233719
 21
91.9766147482
 31
0.0
  0
ARC
  5
2B0
  8
0
  6
CONTINUOUS
 62
     7
 10
356.1386787084
 20
91.9758131478
 30
0.0
 40
1.201755603831469
 50
179.9617823106
 51
232.2503066851
  0
LINE
  5
2B1
  8
0
  6
CONTINUOUS
 62
     7
 10
353.0789989105
 20
98.3746760385
 30
0.0
 11
352.3726600281
 21
98.4228481399
 31
0.0
  0
LINE
  5
2B2
  8
0
  6
CONTINUOUS
 62
     7
 10
351.276816713
 20
98.4949053126
 30
0.0
 11
351.276816713
 21
111.215021913
 31
0.0
  0
LINE
  5
2B3
  8
0
  6
CONTINUOUS
 62
     7
 10
352.0768183342
 20
111.215021913
 30
0.0
 11
352.0768183342
 21
98.4949053126
 31
0.0
  0
LINE
  5
2B4
  8
0
  6
CONTINUOUS
 62
     7
 10
351.276816713
 20
112.394905542
 30
0.0
 11
352.0768183342
 21
112.394905542
 31
0.0
  0
LINE
  5
2B5
  8
0
  6
CONTINUOUS
 62
     7
 10
351.276816713
 20
111.215021913
 30
0.0
 11
351.276816713
 21
112.394905542
 31
0.0
  0
LINE
  5
2B6
  8
0
  6
CONTINUOUS
 62
     7
 10
352.0768183342
 20
112.394905542
 30
0.0
 11
352.0768183342
 21
111.215021913
 31
0.0
  0
LINE
  5
2B7
  8
0
  6
CONTINUOUS
 62
     7
 10
356.4768212906
 20
109.3949054228
 30
0.0
 11
356.4768212906
 21
108.3949052589
 31
0.0
  0
LINE
  5
2B8
  8
0
  6
CONTINUOUS
 62
     7
 10
356.4768212906
 20
109.3949054228
 30
0.0
 11
352.0768183342
 21
109.3949054228
 31
0.0
  0
LINE
  5
2B9
  8
0
  6
CONTINUOUS
 62
     7
 10
346.4768189064
 20
109.3949054228
 30
0.0
 11
346.4768189064
 21
108.3949052589
 31
0.0
  0
LINE
  5
2BA
  8
0
  6
CONTINUOUS
 62
     7
 10
351.276816713
 20
109.3949054228
 30
0.0
 11
346.4768189064
 21
109.3949054228
 31
0.0
  0
LINE
  5
2BB
  8
0
  6
CONTINUOUS
 62
     7
 10
356.4768212906
 20
108.3949052589
 30
0.0
 11
356.4768212906
 21
99.194905241
 31
0.0
  0
LINE
  5
2BC
  8
0
  6
CONTINUOUS
 62
     7
 10
346.4768189064
 20
108.3949052589
 30
0.0
 11
346.4768189064
 21
99.194905241
 31
0.0
  0
LINE
  5
2BD
  8
0
  6
CONTINUOUS
 62
     7
 10
351.276816713
 20
98.1949050771
 30
0.0
 11
346.4768189064
 21
98.1949050771
 31
0.0
  0
LINE
  5
2BE
  8
0
  6
CONTINUOUS
 62
     7
 10
346.4768189064
 20
99.194905241
 30
0.0
 11
346.4768189064
 21
98.1949050771
 31
0.0
  0
LINE
  5
2BF
  8
0
  6
CONTINUOUS
 62
     7
 10
356.4768212906
 20
98.1949050771
 30
0.0
 11
353.7807124725
 21
98.1949050771
 31
0.0
  0
LINE
  5
2C0
  8
0
  6
CONTINUOUS
 62
     7
 10
356.4768212906
 20
99.194905241
 30
0.0
 11
356.4768212906
 21
98.1949050771
 31
0.0
  0
LINE
  5
2C1
  8
0
  6
CONTINUOUS
 62
     7
 10
232.1511435381
 20
98.4949053126
 30
0.0
 11
232.1511435381
 21
98.4380860674
 31
0.0
  0
LINE
  5
2C2
  8
0
  6
CONTINUOUS
 62
     7
 10
232.1511435381
 20
98.4380860674
 30
0.0
 11
232.3726642004
 21
98.4228481399
 31
0.0
  0
LINE
  5
2C3
  8
0
  6
CONTINUOUS
 62
     7
 10
231.3733968011
 20
37.2949031042
 30
0.0
 11
231.2768193952
 21
37.2949031042
 31
0.0
  0
LINE
  5
2C4
  8
0
  6
CONTINUOUS
 62
     7
 10
231.2768193952
 20
37.2949031042
 30
0.0
 11
231.2768193952
 21
98.4949053126
 31
0.0
  0
LINE
  5
2C5
  8
0
  6
CONTINUOUS
 62
     7
 10
231.2768193952
 20
98.4949053126
 30
0.0
 11
232.1511435381
 21
98.4949053126
 31
0.0
  0
ARC
  5
2C6
  8
0
  6
CONTINUOUS
 62
     7
 10
232.9407791083
 20
96.3833203045
 30
0.0
 40
1.996146860999684
 50
359.879897053
 51
86.0294823533
  0
LINE
  5
2C7
  8
0
  6
CONTINUOUS
 62
     7
 10
234.9369215837
 20
96.3791360008
 30
0.0
 11
234.9369215837
 21
91.9766147482
 31
0.0
  0
ARC
  5
2C8
  8
0
  6
CONTINUOUS
 62
     7
 10
236.1387141595
 20
91.975831396
 30
0.0
 40
1.201792831047236
 50
179.9626534821
 51
232.2494355137
  0
LINE
  5
2C9
  8
0
  6
CONTINUOUS
 62
     7
 10
233.0789986125
 20
98.3746760385
 30
0.0
 11
232.3726642004
 21
98.4228481399
 31
0.0
  0
LINE
  5
2CA
  8
0
  6
CONTINUOUS
 62
     7
 10
231.2768193952
 20
98.4949053126
 30
0.0
 11
231.2768193952
 21
111.215021913
 31
0.0
  0
LINE
  5
2CB
  8
0
  6
CONTINUOUS
 62
     7
 10
232.0768195263
 20
111.215021913
 30
0.0
 11
232.0768195263
 21
98.4949053126
 31
0.0
  0
LINE
  5
2CC
  8
0
  6
CONTINUOUS
 62
     7
 10
231.2768193952
 20
112.394905542
 30
0.0
 11
232.0768195263
 21
112.394905542
 31
0.0
  0
LINE
  5
2CD
  8
0
  6
CONTINUOUS
 62
     7
 10
231.2768193952
 20
111.215021913
 30
0.0
 11
231.2768193952
 21
112.394905542
 31
0.0
  0
LINE
  5
2CE
  8
0
  6
CONTINUOUS
 62
     7
 10
232.0768195263
 20
112.394905542
 30
0.0
 11
232.0768195263
 21
111.215021913
 31
0.0
  0
LINE
  5
2CF
  8
0
  6
CONTINUOUS
 62
     7
 10
231.2768193952
 20
109.3949054228
 30
0.0
 11
226.4768186084
 21
109.3949054228
 31
0.0
  0
LINE
  5
2D0
  8
0
  6
CONTINUOUS
 62
     7
 10
226.4768186084
 20
109.3949054228
 30
0.0
 11
226.4768186084
 21
108.3949052589
 31
0.0
  0
LINE
  5
2D1
  8
0
  6
CONTINUOUS
 62
     7
 10
236.4768195025
 20
109.3949054228
 30
0.0
 11
236.4768195025
 21
108.3949052589
 31
0.0
  0
LINE
  5
2D2
  8
0
  6
CONTINUOUS
 62
     7
 10
236.4768195025
 20
109.3949054228
 30
0.0
 11
232.0768195263
 21
109.3949054228
 31
0.0
  0
LINE
  5
2D3
  8
0
  6
CONTINUOUS
 62
     7
 10
236.4768195025
 20
108.3949052589
 30
0.0
 11
236.4768195025
 21
99.194905241
 31
0.0
  0
LINE
  5
2D4
  8
0
  6
CONTINUOUS
 62
     7
 10
226.4768186084
 20
108.3949052589
 30
0.0
 11
226.4768186084
 21
99.194905241
 31
0.0
  0
LINE
  5
2D5
  8
0
  6
CONTINUOUS
 62
     7
 10
231.2768193952
 20
98.1949050771
 30
0.0
 11
226.4768186084
 21
98.1949050771
 31
0.0
  0
LINE
  5
2D6
  8
0
  6
CONTINUOUS
 62
     7
 10
226.4768186084
 20
99.194905241
 30
0.0
 11
226.4768186084
 21
98.1949050771
 31
0.0
  0
LINE
  5
2D7
  8
0
  6
CONTINUOUS
 62
     7
 10
236.4768195025
 20
98.1949050771
 30
0.0
 11
233.7807091943
 21
98.1949050771
 31
0.0
  0
LINE
  5
2D8
  8
0
  6
CONTINUOUS
 62
     7
 10
236.4768195025
 20
99.194905241
 30
0.0
 11
236.4768195025
 21
98.1949050771
 31
0.0
  0
LINE
  5
2D9
  8
0
  6
CONTINUOUS
 62
     7
 10
306.6768187157
 20
37.2949031042
 30
0.0
 11
306.6768187157
 21
98.4949053126
 31
0.0
  0
LINE
  5
2DA
  8
0
  6
CONTINUOUS
 62
     7
 10
306.5802413097
 20
37.2949031042
 30
0.0
 11
306.6768187157
 21
37.2949031042
 31
0.0
  0
LINE
  5
2DB
  8
0
  6
CONTINUOUS
 62
     7
 10
305.8024960629
 20
98.4949053126
 30
0.0
 11
305.8024960629
 21
98.4380860674
 31
0.0
  0
LINE
  5
2DC
  8
0
  6
CONTINUOUS
 62
     7
 10
306.6768187157
 20
98.4949053126
 30
0.0
 11
305.8024960629
 21
98.4949053126
 31
0.0
  0
LINE
  5
2DD
  8
0
  6
CONTINUOUS
 62
     7
 10
305.8024960629
 20
98.4380860674
 30
0.0
 11
305.5809754005
 21
98.4228481399
 31
0.0
  0
ARC
  5
2DE
  8
0
  6
CONTINUOUS
 62
     7
 10
301.8148834671
 20
91.9758419947
 30
0.0
 40
1.201834798489659
 50
308.2419419619
 51
0.0368399334
  0
LINE
  5
2DF
  8
0
  6
CONTINUOUS
 62
     7
 10
303.0167180172
 20
96.3791360008
 30
0.0
 11
303.0167180172
 21
91.9766147482
 31
0.0
  0
ARC
  5
2E0
  8
0
  6
CONTINUOUS
 62
     7
 10
305.0128596015
 20
96.3833214439
 30
0.0
 40
1.996145972237516
 50
93.9706223989
 51
180.1201357031
  0
LINE
  5
2E1
  8
0
  6
CONTINUOUS
 62
     7
 10
304.8746365181
 20
98.3746760385
 30
0.0
 11
305.5809754005
 21
98.4228481399
 31
0.0
  0
LINE
  5
2E2
  8
0
  6
CONTINUOUS
 62
     7
 10
306.6768187157
 20
98.4949053126
 30
0.0
 11
306.6768187157
 21
111.215021913
 31
0.0
  0
LINE
  5
2E3
  8
0
  6
CONTINUOUS
 62
     7
 10
305.8768170944
 20
111.215021913
 30
0.0
 11
305.8768170944
 21
98.4949053126
 31
0.0
  0
LINE
  5
2E4
  8
0
  6
CONTINUOUS
 62
     7
 10
306.6768187157
 20
112.394905542
 30
0.0
 11
305.8768170944
 21
112.394905542
 31
0.0
  0
LINE
  5
2E5
  8
0
  6
CONTINUOUS
 62
     7
 10
306.6768187157
 20
111.215021913
 30
0.0
 11
306.6768187157
 21
112.394905542
 31
0.0
  0
LINE
  5
2E6
  8
0
  6
CONTINUOUS
 62
     7
 10
305.8768170944
 20
112.394905542
 30
0.0
 11
305.8768170944
 21
111.215021913
 31
0.0
  0
LINE
  5
2E7
  8
0
  6
CONTINUOUS
 62
     7
 10
301.4768200985
 20
109.3949054228
 30
0.0
 11
301.4768200985
 21
108.3949052589
 31
0.0
  0
LINE
  5
2E8
  8
0
  6
CONTINUOUS
 62
     7
 10
301.4768200985
 20
109.3949054228
 30
0.0
 11
305.8768170944
 21
109.3949054228
 31
0.0
  0
LINE
  5
2E9
  8
0
  6
CONTINUOUS
 62
     7
 10
306.6768187157
 20
109.3949054228
 30
0.0
 11
311.4768165222
 21
109.3949054228
 31
0.0
  0
LINE
  5
2EA
  8
0
  6
CONTINUOUS
 62
     7
 10
311.4768165222
 20
109.3949054228
 30
0.0
 11
311.4768165222
 21
108.3949052589
 31
0.0
  0
LINE
  5
2EB
  8
0
  6
CONTINUOUS
 62
     7
 10
301.4768200985
 20
108.3949052589
 30
0.0
 11
301.4768200985
 21
99.194905241
 31
0.0
  0
LINE
  5
2EC
  8
0
  6
CONTINUOUS
 62
     7
 10
311.4768165222
 20
108.3949052589
 30
0.0
 11
311.4768165222
 21
99.194905241
 31
0.0
  0
LINE
  5
2ED
  8
0
  6
CONTINUOUS
 62
     7
 10
306.6768187157
 20
98.1949050771
 30
0.0
 11
311.4768165222
 21
98.1949050771
 31
0.0
  0
LINE
  5
2EE
  8
0
  6
CONTINUOUS
 62
     7
 10
311.4768165222
 20
99.194905241
 30
0.0
 11
311.4768165222
 21
98.1949050771
 31
0.0
  0
LINE
  5
2EF
  8
0
  6
CONTINUOUS
 62
     7
 10
301.4768200985
 20
98.1949050771
 30
0.0
 11
304.1729289166
 21
98.1949050771
 31
0.0
  0
LINE
  5
2F0
  8
0
  6
CONTINUOUS
 62
     7
 10
301.4768200985
 20
99.194905241
 30
0.0
 11
301.4768200985
 21
98.1949050771
 31
0.0
  0
LINE
  5
2F1
  8
0
  6
CONTINUOUS
 62
     7
 10
186.6768184176
 20
37.2949031042
 30
0.0
 11
186.6768184176
 21
98.4949053126
 31
0.0
  0
LINE
  5
2F2
  8
0
  6
CONTINUOUS
 62
     7
 10
186.5802410117
 20
37.2949031042
 30
0.0
 11
186.6768184176
 21
37.2949031042
 31
0.0
  0
LINE
  5
2F3
  8
0
  6
CONTINUOUS
 62
     7
 10
185.8024942747
 20
98.4380860674
 30
0.0
 11
185.5809736124
 21
98.4228481399
 31
0.0
  0
LINE
  5
2F4
  8
0
  6
CONTINUOUS
 62
     7
 10
185.8024942747
 20
98.4949053126
 30
0.0
 11
185.8024942747
 21
98.4380860674
 31
0.0
  0
LINE
  5
2F5
  8
0
  6
CONTINUOUS
 62
     7
 10
186.6768184176
 20
98.4949053126
 30
0.0
 11
185.8024942747
 21
98.4949053126
 31
0.0
  0
ARC
  5
2F6
  8
0
  6
CONTINUOUS
 62
     7
 10
181.814881679
 20
91.9758419947
 30
0.0
 40
1.201834798489489
 50
308.2419419619
 51
0.0368399334
  0
LINE
  5
2F7
  8
0
  6
CONTINUOUS
 62
     7
 10
183.0167162291
 20
96.3791360008
 30
0.0
 11
183.0167162291
 21
91.9766147482
 31
0.0
  0
ARC
  5
2F8
  8
0
  6
CONTINUOUS
 62
     7
 10
185.0128587045
 20
96.3833203045
 30
0.0
 40
1.996146860999666
 50
93.9705176467
 51
180.120102947
  0
LINE
  5
2F9
  8
0
  6
CONTINUOUS
 62
     7
 10
184.8746392003
 20
98.3746760385
 30
0.0
 11
185.5809736124
 21
98.4228481399
 31
0.0
  0
LINE
  5
2FA
  8
0
  6
CONTINUOUS
 62
     7
 10
186.6768184176
 20
98.4949053126
 30
0.0
 11
186.6768184176
 21
111.215021913
 31
0.0
  0
LINE
  5
2FB
  8
0
  6
CONTINUOUS
 62
     7
 10
185.8768182865
 20
111.215021913
 30
0.0
 11
185.8768182865
 21
98.4949053126
 31
0.0
  0
LINE
  5
2FC
  8
0
  6
CONTINUOUS
 62
     7
 10
186.6768184176
 20
112.394905542
 30
0.0
 11
185.8768182865
 21
112.394905542
 31
0.0
  0
LINE
  5
2FD
  8
0
  6
CONTINUOUS
 62
     7
 10
186.6768184176
 20
111.215021913
 30
0.0
 11
186.6768184176
 21
112.394905542
 31
0.0
  0
LINE
  5
2FE
  8
0
  6
CONTINUOUS
 62
     7
 10
185.8768182865
 20
112.394905542
 30
0.0
 11
185.8768182865
 21
111.215021913
 31
0.0
  0
LINE
  5
2FF
  8
0
  6
CONTINUOUS
 62
     7
 10
181.4768183104
 20
109.3949054228
 30
0.0
 11
181.4768183104
 21
108.3949052589
 31
0.0
  0
LINE
  5
300
  8
0
  6
CONTINUOUS
 62
     7
 10
181.4768183104
 20
109.3949054228
 30
0.0
 11
185.8768182865
 21
109.3949054228
 31
0.0
  0
LINE
  5
301
  8
0
  6
CONTINUOUS
 62
     7
 10
186.6768184176
 20
109.3949054228
 30
0.0
 11
191.4768192044
 21
109.3949054228
 31
0.0
  0
LINE
  5
302
  8
0
  6
CONTINUOUS
 62
     7
 10
191.4768192044
 20
109.3949054228
 30
0.0
 11
191.4768192044
 21
108.3949052589
 31
0.0
  0
LINE
  5
303
  8
0
  6
CONTINUOUS
 62
     7
 10
191.4768192044
 20
108.3949052589
 30
0.0
 11
191.4768192044
 21
99.194905241
 31
0.0
  0
LINE
  5
304
  8
0
  6
CONTINUOUS
 62
     7
 10
181.4768183104
 20
108.3949052589
 30
0.0
 11
181.4768183104
 21
99.194905241
 31
0.0
  0
LINE
  5
305
  8
0
  6
CONTINUOUS
 62
     7
 10
181.4768183104
 20
98.1949050771
 30
0.0
 11
184.1729286185
 21
98.1949050771
 31
0.0
  0
LINE
  5
306
  8
0
  6
CONTINUOUS
 62
     7
 10
181.4768183104
 20
99.194905241
 30
0.0
 11
181.4768183104
 21
98.1949050771
 31
0.0
  0
LINE
  5
307
  8
0
  6
CONTINUOUS
 62
     7
 10
186.6768184176
 20
98.1949050771
 30
0.0
 11
191.4768192044
 21
98.1949050771
 31
0.0
  0
LINE
  5
308
  8
0
  6
CONTINUOUS
 62
     7
 10
191.4768192044
 20
99.194905241
 30
0.0
 11
191.4768192044
 21
98.1949050771
 31
0.0
  0
LINE
  5
309
  8
0
  6
CONTINUOUS
 62
     7
 10
66.6768210999
 20
37.2949031042
 30
0.0
 11
66.6768210999
 21
98.4949053126
 31
0.0
  0
LINE
  5
30A
  8
0
  6
CONTINUOUS
 62
     7
 10
66.5802377335
 20
37.2949031042
 30
0.0
 11
66.6768210999
 21
37.2949031042
 31
0.0
  0
LINE
  5
30B
  8
0
  6
CONTINUOUS
 62
     7
 10
65.8024924866
 20
98.4949053126
 30
0.0
 11
65.8024924866
 21
98.4380860674
 31
0.0
  0
LINE
  5
30C
  8
0
  6
CONTINUOUS
 62
     7
 10
66.6768210999
 20
98.4949053126
 30
0.0
 11
65.8024924866
 21
98.4949053126
 31
0.0
  0
LINE
  5
30D
  8
0
  6
CONTINUOUS
 62
     7
 10
65.8024924866
 20
98.4380860674
 30
0.0
 11
65.5809777847
 21
98.4228481399
 31
0.0
  0
ARC
  5
30E
  8
0
  6
CONTINUOUS
 62
     7
 10
61.8149177957
 20
91.9758236213
 30
0.0
 40
1.201796905601965
 50
308.241064846
 51
0.0377170493
  0
LINE
  5
30F
  8
0
  6
CONTINUOUS
 62
     7
 10
63.0167144409
 20
96.3791360008
 30
0.0
 11
63.0167144409
 21
91.9766147482
 31
0.0
  0
ARC
  5
310
  8
0
  6
CONTINUOUS
 62
     7
 10
65.0128619151
 20
96.3833155473
 30
0.0
 40
1.996151849803439
 50
93.9706086595
 51
180.1199660981
  0
LINE
  5
311
  8
0
  6
CONTINUOUS
 62
     7
 10
64.8746389023
 20
98.3746760385
 30
0.0
 11
65.5809777847
 21
98.4228481399
 31
0.0
  0
LINE
  5
312
  8
0
  6
CONTINUOUS
 62
     7
 10
66.6768210999
 20
98.4949053126
 30
0.0
 11
66.6768210999
 21
111.215021913
 31
0.0
  0
LINE
  5
313
  8
0
  6
CONTINUOUS
 62
     7
 10
65.8768194786
 20
111.215021913
 30
0.0
 11
65.8768194786
 21
98.4949053126
 31
0.0
  0
LINE
  5
314
  8
0
  6
CONTINUOUS
 62
     7
 10
66.6768210999
 20
112.394905542
 30
0.0
 11
65.8768194786
 21
112.394905542
 31
0.0
  0
LINE
  5
315
  8
0
  6
CONTINUOUS
 62
     7
 10
66.6768210999
 20
111.215021913
 30
0.0
 11
66.6768210999
 21
112.394905542
 31
0.0
  0
LINE
  5
316
  8
0
  6
CONTINUOUS
 62
     7
 10
65.8768194786
 20
112.394905542
 30
0.0
 11
65.8768194786
 21
111.215021913
 31
0.0
  0
LINE
  5
317
  8
0
  6
CONTINUOUS
 62
     7
 10
66.6768210999
 20
109.3949054228
 30
0.0
 11
71.4768189064
 21
109.3949054228
 31
0.0
  0
LINE
  5
318
  8
0
  6
CONTINUOUS
 62
     7
 10
71.4768189064
 20
109.3949054228
 30
0.0
 11
71.4768189064
 21
108.3949052589
 31
0.0
  0
LINE
  5
319
  8
0
  6
CONTINUOUS
 62
     7
 10
61.4768165222
 20
109.3949054228
 30
0.0
 11
61.4768165222
 21
108.3949052589
 31
0.0
  0
LINE
  5
31A
  8
0
  6
CONTINUOUS
 62
     7
 10
61.4768165222
 20
109.3949054228
 30
0.0
 11
65.8768194786
 21
109.3949054228
 31
0.0
  0
LINE
  5
31B
  8
0
  6
CONTINUOUS
 62
     7
 10
71.4768189064
 20
108.3949052589
 30
0.0
 11
71.4768189064
 21
99.194905241
 31
0.0
  0
LINE
  5
31C
  8
0
  6
CONTINUOUS
 62
     7
 10
61.4768165222
 20
108.3949052589
 30
0.0
 11
61.4768165222
 21
99.194905241
 31
0.0
  0
LINE
  5
31D
  8
0
  6
CONTINUOUS
 62
     7
 10
61.4768165222
 20
98.1949050771
 30
0.0
 11
64.1729253403
 21
98.1949050771
 31
0.0
  0
LINE
  5
31E
  8
0
  6
CONTINUOUS
 62
     7
 10
61.4768165222
 20
99.194905241
 30
0.0
 11
61.4768165222
 21
98.1949050771
 31
0.0
  0
LINE
  5
31F
  8
0
  6
CONTINUOUS
 62
     7
 10
66.6768210999
 20
98.1949050771
 30
0.0
 11
71.4768189064
 21
98.1949050771
 31
0.0
  0
LINE
  5
320
  8
0
  6
CONTINUOUS
 62
     7
 10
71.4768189064
 20
99.194905241
 30
0.0
 11
71.4768189064
 21
98.1949050771
 31
0.0
  0
LINE
  5
321
  8
0
  6
CONTINUOUS
 62
     7
 10
426.676823484
 20
37.2949031042
 30
0.0
 11
426.676823484
 21
98.4949053126
 31
0.0
  0
LINE
  5
322
  8
0
  6
CONTINUOUS
 62
     7
 10
426.5802401176
 20
37.2949031042
 30
0.0
 11
426.676823484
 21
37.2949031042
 31
0.0
  0
LINE
  5
323
  8
0
  6
CONTINUOUS
 62
     7
 10
425.8024948708
 20
98.4380860674
 30
0.0
 11
425.5809801689
 21
98.4228481399
 31
0.0
  0
LINE
  5
324
  8
0
  6
CONTINUOUS
 62
     7
 10
425.8024948708
 20
98.4949053126
 30
0.0
 11
425.8024948708
 21
98.4380860674
 31
0.0
  0
LINE
  5
325
  8
0
  6
CONTINUOUS
 62
     7
 10
426.676823484
 20
98.4949053126
 30
0.0
 11
425.8024948708
 21
98.4949053126
 31
0.0
  0
ARC
  5
326
  8
0
  6
CONTINUOUS
 62
     7
 10
421.8149722104
 20
91.9758077869
 30
0.0
 40
1.201744885649133
 50
308.239137388
 51
0.0384736199
  0
LINE
  5
327
  8
0
  6
CONTINUOUS
 62
     7
 10
423.0167168251
 20
96.3791360008
 30
0.0
 11
423.0167168251
 21
91.9766147482
 31
0.0
  0
ARC
  5
328
  8
0
  6
CONTINUOUS
 62
     7
 10
425.0128507336
 20
96.3833281775
 30
0.0
 40
1.996138310537504
 50
93.9702453146
 51
180.120329443
  0
LINE
  5
329
  8
0
  6
CONTINUOUS
 62
     7
 10
424.8746412865
 20
98.3746760385
 30
0.0
 11
425.5809801689
 21
98.4228481399
 31
0.0
  0
LINE
  5
32A
  8
0
  6
CONTINUOUS
 62
     7
 10
426.676823484
 20
98.4949053126
 30
0.0
 11
426.676823484
 21
111.215021913
 31
0.0
  0
LINE
  5
32B
  8
0
  6
CONTINUOUS
 62
     7
 10
425.8768099419
 20
111.215021913
 30
0.0
 11
425.8768099419
 21
98.4949053126
 31
0.0
  0
LINE
  5
32C
  8
0
  6
CONTINUOUS
 62
     7
 10
426.676823484
 20
112.394905542
 30
0.0
 11
425.8768099419
 21
112.394905542
 31
0.0
  0
LINE
  5
32D
  8
0
  6
CONTINUOUS
 62
     7
 10
426.676823484
 20
111.215021913
 30
0.0
 11
426.676823484
 21
112.394905542
 31
0.0
  0
LINE
  5
32E
  8
0
  6
CONTINUOUS
 62
     7
 10
425.8768099419
 20
112.394905542
 30
0.0
 11
425.8768099419
 21
111.215021913
 31
0.0
  0
LINE
  5
32F
  8
0
  6
CONTINUOUS
 62
     7
 10
426.676823484
 20
109.3949054228
 30
0.0
 11
431.4768093697
 21
109.3949054228
 31
0.0
  0
LINE
  5
330
  8
0
  6
CONTINUOUS
 62
     7
 10
431.4768093697
 20
109.3949054228
 30
0.0
 11
431.4768093697
 21
108.3949052589
 31
0.0
  0
LINE
  5
331
  8
0
  6
CONTINUOUS
 62
     7
 10
421.4768189064
 20
109.3949054228
 30
0.0
 11
421.4768189064
 21
108.3949052589
 31
0.0
  0
LINE
  5
332
  8
0
  6
CONTINUOUS
 62
     7
 10
421.4768189064
 20
109.3949054228
 30
0.0
 11
425.8768099419
 21
109.3949054228
 31
0.0
  0
LINE
  5
333
  8
0
  6
CONTINUOUS
 62
     7
 10
421.4768189064
 20
108.3949052589
 30
0.0
 11
421.4768189064
 21
99.194905241
 31
0.0
  0
LINE
  5
334
  8
0
  6
CONTINUOUS
 62
     7
 10
431.4768093697
 20
108.3949052589
 30
0.0
 11
431.4768093697
 21
99.194905241
 31
0.0
  0
LINE
  5
335
  8
0
  6
CONTINUOUS
 62
     7
 10
426.676823484
 20
98.1949050771
 30
0.0
 11
431.4768093697
 21
98.1949050771
 31
0.0
  0
LINE
  5
336
  8
0
  6
CONTINUOUS
 62
     7
 10
431.4768093697
 20
99.194905241
 30
0.0
 11
431.4768093697
 21
98.1949050771
 31
0.0
  0
LINE
  5
337
  8
0
  6
CONTINUOUS
 62
     7
 10
421.4768189064
 20
98.1949050771
 30
0.0
 11
424.1729277245
 21
98.1949050771
 31
0.0
  0
LINE
  5
338
  8
0
  6
CONTINUOUS
 62
     7
 10
421.4768189064
 20
99.194905241
 30
0.0
 11
421.4768189064
 21
98.1949050771
 31
0.0
  0
POLYLINE
  5
339
  8
0
  6
CONTINUOUS
 62
     7
 66
     1
 10
0.0
 20
0.0
 30
0.0
  0
VERTEX
  5
7D6
  8
0
  6
CONTINUOUS
 62
     7
 10
568.4700972308
 20
251.4440248949
 30
0.0
  0
VERTEX
  5
7D7
  8
0
  6
CONTINUOUS
 62
     7
 10
570.2541119326
 20
251.5402506334
 30
0.0
  0
VERTEX
  5
7D8
  8
0
  6
CONTINUOUS
 62
     7
 10
572.6752049197
 20
251.6845892412
 30
0.0
  0
VERTEX
  5
7D9
  8
0
  6
CONTINUOUS
 62
     7
 10
573.8668925036
 20
251.6744922143
 30
0.0
  0
VERTEX
  5
7DA
  8
0
  6
CONTINUOUS
 62
     7
 10
575.0167018641
 20
251.5249382001
 30
0.0
  0
VERTEX
  5
7DB
  8
0
  6
CONTINUOUS
 62
     7
 10
576.1075979937
 20
251.1872957689
 30
0.0
  0
VERTEX
  5
7DC
  8
0
  6
CONTINUOUS
 62
     7
 10
577.1445638407
 20
250.6785164815
 30
0.0
  0
VERTEX
  5
7DD
  8
0
  6
CONTINUOUS
 62
     7
 10
578.4619397391
 20
249.7930954439
 30
0.0
  0
VERTEX
  5
7DE
  8
0
  6
CONTINUOUS
 62
     7
 10
579.7281867731
 20
248.7454186422
 30
0.0
  0
VERTEX
  5
7DF
  8
0
  6
CONTINUOUS
 62
     7
 10
580.9688693751
 20
247.616607998
 30
0.0
  0
SEQEND
  5
84B
  8
0
  6
CONTINUOUS
 62
     7
  0
LINE
  5
33A
  8
0
  6
CONTINUOUS
 62
     7
 10
580.9691077937
 20
247.6302753431
 30
0.0
 11
580.9971458186
 21
249.2362926942
 31
0.0
  0
LINE
  5
33B
  8
0
  6
CONTINUOUS
 62
     7
 10
568.4700972308
 20
253.3185075265
 30
0.0
 11
507.3355655093
 21
253.3185075265
 31
0.0
  0
LINE
  5
33C
  8
0
  6
CONTINUOUS
 62
     7
 10
497.9700951744
 20
237.0157192689
 30
0.0
 11
505.9700949956
 21
237.0157192689
 31
0.0
  0
ARC
  5
33D
  8
0
  6
CONTINUOUS
 62
     7
 10
497.970095085
 20
228.0157218439
 30
0.0
 40
1.0
 50
180.0
 51
270.0
  0
ARC
  5
33E
  8
0
  6
CONTINUOUS
 62
     7
 10
505.970095085
 20
236.0157218439
 30
0.0
 40
1.000000000000114
 50
0.0
 51
90.0
  0
LINE
  5
33F
  8
0
  6
CONTINUOUS
 62
     7
 10
505.9700949956
 20
227.0157228452
 30
0.0
 11
497.9700951744
 21
227.0157228452
 31
0.0
  0
LINE
  5
340
  8
0
  6
CONTINUOUS
 62
     7
 10
506.9700951595
 20
236.0157202226
 30
0.0
 11
506.9700951595
 21
228.0157218915
 31
0.0
  0
ARC
  5
341
  8
0
  6
CONTINUOUS
 62
     7
 10
505.970095085
 20
228.0157218439
 30
0.0
 40
1.000000000000114
 50
270.0
 51
0.0
  0
LINE
  5
342
  8
0
  6
CONTINUOUS
 62
     7
 10
496.9700950105
 20
228.0157218915
 30
0.0
 11
496.9700950105
 21
236.0157202226
 31
0.0
  0
ARC
  5
343
  8
0
  6
CONTINUOUS
 62
     7
 10
497.970095085
 20
236.0157218439
 30
0.0
 40
1.0
 50
90.0
 51
180.0
  0
LINE
  5
344
  8
0
  6
CONTINUOUS
 62
     7
 10
489.9700953532
 20
161.8157218439
 30
0.0
 11
489.9700953532
 21
163.0157218543
 31
0.0
  0
LINE
  5
345
  8
0
  6
CONTINUOUS
 62
     7
 10
493.9700952638
 20
161.8157218439
 30
0.0
 11
489.9700953532
 21
161.8157218439
 31
0.0
  0
LINE
  5
346
  8
0
  6
CONTINUOUS
 62
     7
 10
489.9700953532
 20
163.0157218543
 30
0.0
 11
493.9700952638
 21
163.0157218543
 31
0.0
  0
LINE
  5
347
  8
0
  6
CONTINUOUS
 62
     7
 10
493.9700952638
 20
161.8157218439
 30
0.0
 11
495.9700952191
 21
161.8157218439
 31
0.0
  0
LINE
  5
348
  8
0
  6
CONTINUOUS
 62
     7
 10
493.9700952638
 20
163.0157218543
 30
0.0
 11
495.9700952191
 21
163.0157218543
 31
0.0
  0
LINE
  5
349
  8
0
  6
CONTINUOUS
 62
     7
 10
495.9700952191
 20
161.8157218439
 30
0.0
 11
523.3385166992
 21
161.8157218439
 31
0.0
  0
LINE
  5
34A
  8
0
  6
CONTINUOUS
 62
     7
 10
523.3385166992
 20
163.0157218543
 30
0.0
 11
495.9700952191
 21
163.0157218543
 31
0.0
  0
LINE
  5
34B
  8
0
  6
CONTINUOUS
 62
     7
 10
525.9700945485
 20
163.0157218543
 30
0.0
 11
525.9700945485
 21
161.8157218439
 31
0.0
  0
LINE
  5
34C
  8
0
  6
CONTINUOUS
 62
     7
 10
525.9700945485
 20
161.8157218439
 30
0.0
 11
523.3385166992
 21
161.8157218439
 31
0.0
  0
LINE
  5
34D
  8
0
  6
CONTINUOUS
 62
     7
 10
523.3385166992
 20
163.0157218543
 30
0.0
 11
525.9700945485
 21
163.0157218543
 31
0.0
  0
LINE
  5
34E
  8
0
  6
CONTINUOUS
 62
     7
 10
496.9700950105
 20
163.0157218543
 30
0.0
 11
496.9700950105
 21
227.2157202703
 31
0.0
  0
LINE
  5
34F
  8
0
  6
CONTINUOUS
 62
     7
 10
506.9700951595
 20
227.2157202703
 30
0.0
 11
506.9700951595
 21
163.0157218543
 31
0.0
  0
LINE
  5
350
  8
0
  6
CONTINUOUS
 62
     7
 10
513.4258194734
 20
253.8843284589
 30
0.0
 11
512.2135518957
 21
253.3185075265
 31
0.0
  0
POLYLINE
  5
351
  8
0
  6
CONTINUOUS
 62
     7
 66
     1
 10
0.0
 20
0.0
 30
0.0
  0
VERTEX
  5
7E0
  8
0
  6
CONTINUOUS
 62
     7
 10
518.0585107673
 20
254.5156191331
 30
0.0
  0
VERTEX
  5
7E1
  8
0
  6
CONTINUOUS
 62
     7
 10
516.9260314573
 20
254.507596348
 30
0.0
  0
VERTEX
  5
7E2
  8
0
  6
CONTINUOUS
 62
     7
 10
515.8473527897
 20
254.4373463136
 30
0.0
  0
VERTEX
  5
7E3
  8
0
  6
CONTINUOUS
 62
     7
 10
514.9135223497
 20
254.3094705087
 30
0.0
  0
VERTEX
  5
7E4
  8
0
  6
CONTINUOUS
 62
     7
 10
514.0997282136
 20
254.1246961099
 30
0.0
  0
VERTEX
  5
7E5
  8
0
  6
CONTINUOUS
 62
     7
 10
513.4258194734
 20
253.8843284589
 30
0.0
  0
SEQEND
  5
84A
  8
0
  6
CONTINUOUS
 62
     7
  0
POLYLINE
  5
352
  8
0
  6
CONTINUOUS
 62
     7
 66
     1
 10
0.0
 20
0.0
 30
0.0
  0
VERTEX
  5
7E6
  8
0
  6
CONTINUOUS
 62
     7
 10
521.0792339314
 20
254.4628690225
 30
0.0
  0
VERTEX
  5
7E7
  8
0
  6
CONTINUOUS
 62
     7
 10
519.5688701142
 20
254.4892559988
 30
0.0
  0
VERTEX
  5
7E8
  8
0
  6
CONTINUOUS
 62
     7
 10
518.0585107673
 20
254.5156191331
 30
0.0
  0
SEQEND
  5
849
  8
0
  6
CONTINUOUS
 62
     7
  0
POLYLINE
  5
353
  8
0
  6
CONTINUOUS
 62
     7
 66
     1
 10
0.0
 20
0.0
 30
0.0
  0
VERTEX
  5
7E9
  8
0
  6
CONTINUOUS
 62
     7
 10
526.078472184
 20
254.3756018621
 30
0.0
  0
VERTEX
  5
7EA
  8
0
  6
CONTINUOUS
 62
     7
 10
523.5753304232
 20
254.4123302442
 30
0.0
  0
VERTEX
  5
7EB
  8
0
  6
CONTINUOUS
 62
     7
 10
521.0848665703
 20
254.4627200109
 30
0.0
  0
SEQEND
  5
848
  8
0
  6
CONTINUOUS
 62
     7
  0
LINE
  5
354
  8
0
  6
CONTINUOUS
 62
     7
 10
526.1045924295
 20
254.3751488668
 30
0.0
 11
526.078472184
 21
254.3756018621
 31
0.0
  0
POLYLINE
  5
355
  8
0
  6
CONTINUOUS
 62
     7
 66
     1
 10
0.0
 20
0.0
 30
0.0
  0
VERTEX
  5
7EC
  8
0
  6
CONTINUOUS
 62
     7
 10
531.1117923725
 20
254.2877326948
 30
0.0
  0
VERTEX
  5
7ED
  8
0
  6
CONTINUOUS
 62
     7
 10
528.6080456246
 20
254.3317209226
 30
0.0
  0
VERTEX
  5
7EE
  8
0
  6
CONTINUOUS
 62
     7
 10
526.104625212
 20
254.3751488668
 30
0.0
  0
SEQEND
  5
847
  8
0
  6
CONTINUOUS
 62
     7
  0
LINE
  5
356
  8
0
  6
CONTINUOUS
 62
     7
 10
532.9624987114
 20
254.2481969339
 30
0.0
 11
531.1118072737
 21
254.2876552087
 31
0.0
  0
LINE
  5
357
  8
0
  6
CONTINUOUS
 62
     7
 10
541.0761899222
 20
254.1138182622
 30
0.0
 11
532.9624987114
 21
254.2481969339
 31
0.0
  0
POLYLINE
  5
358
  8
0
  6
CONTINUOUS
 62
     7
 66
     1
 10
0.0
 20
0.0
 30
0.0
  0
VERTEX
  5
7EF
  8
0
  6
CONTINUOUS
 62
     7
 10
551.0760909785
 20
253.9392600996
 30
0.0
  0
VERTEX
  5
7F0
  8
0
  6
CONTINUOUS
 62
     7
 10
544.2480659951
 20
254.0660570604
 30
0.0
  0
VERTEX
  5
7F1
  8
0
  6
CONTINUOUS
 62
     7
 10
541.0762018431
 20
254.1138182622
 30
0.0
  0
SEQEND
  5
846
  8
0
  6
CONTINUOUS
 62
     7
  0
POLYLINE
  5
359
  8
0
  6
CONTINUOUS
 62
     7
 66
     1
 10
0.0
 20
0.0
 30
0.0
  0
VERTEX
  5
7F2
  8
0
  6
CONTINUOUS
 62
     7
 10
561.0739356745
 20
253.7647794229
 30
0.0
  0
VERTEX
  5
7F3
  8
0
  6
CONTINUOUS
 62
     7
 10
556.0754007567
 20
253.8096199972
 30
0.0
  0
VERTEX
  5
7F4
  8
0
  6
CONTINUOUS
 62
     7
 10
551.0760909785
 20
253.9392600996
 30
0.0
  0
SEQEND
  5
845
  8
0
  6
CONTINUOUS
 62
     7
  0
POLYLINE
  5
35A
  8
0
  6
CONTINUOUS
 62
     7
 66
     1
 10
0.0
 20
0.0
 30
0.0
  0
VERTEX
  5
7F5
  8
0
  6
CONTINUOUS
 62
     7
 10
572.7296179999
 20
253.3465991956
 30
0.0
  0
VERTEX
  5
7F6
  8
0
  6
CONTINUOUS
 62
     7
 10
572.7042919863
 20
253.3512960416
 30
0.0
  0
VERTEX
  5
7F7
  8
0
  6
CONTINUOUS
 62
     7
 10
570.2912813891
 20
253.669793461
 30
0.0
  0
VERTEX
  5
7F8
  8
0
  6
CONTINUOUS
 62
     7
 10
567.9028159846
 20
253.8090358717
 30
0.0
  0
VERTEX
  5
7F9
  8
0
  6
CONTINUOUS
 62
     7
 10
565.5368990172
 20
253.8324008924
 30
0.0
  0
VERTEX
  5
7FA
  8
0
  6
CONTINUOUS
 62
     7
 10
563.1820744742
 20
253.7977229101
 30
0.0
  0
VERTEX
  5
7FB
  8
0
  6
CONTINUOUS
 62
     7
 10
561.0739356745
 20
253.7647973043
 30
0.0
  0
SEQEND
  5
844
  8
0
  6
CONTINUOUS
 62
     7
  0
ARC
  5
35B
  8
0
  6
CONTINUOUS
 62
     7
 10
570.4939569277
 20
241.059212752
 30
0.0
 40
12.48911710425742
 50
43.7647639822
 51
79.6879731616
  0
POLYLINE
  5
35C
  8
0
  6
CONTINUOUS
 62
     7
 66
     1
 10
0.0
 20
0.0
 30
0.0
  0
VERTEX
  5
7FC
  8
0
  6
CONTINUOUS
 62
     7
 10
580.9597558249
 20
247.6304362756
 30
0.0
  0
VERTEX
  5
7FD
  8
0
  6
CONTINUOUS
 62
     7
 10
580.9623188246
 20
247.626591776
 30
0.0
  0
VERTEX
  5
7FE
  8
0
  6
CONTINUOUS
 62
     7
 10
580.8936125506
 20
247.7302621347
 30
0.0
  0
VERTEX
  5
7FF
  8
0
  6
CONTINUOUS
 62
     7
 10
580.7496494521
 20
247.9461978418
 30
0.0
  0
VERTEX
  5
800
  8
0
  6
CONTINUOUS
 62
     7
 10
580.5307931174
 20
248.2699523908
 30
0.0
  0
VERTEX
  5
801
  8
0
  6
CONTINUOUS
 62
     7
 10
580.096018957
 20
248.8965044958
 30
0.0
  0
VERTEX
  5
802
  8
0
  6
CONTINUOUS
 62
     7
 10
579.5134193171
 20
249.6979247076
 30
0.0
  0
SEQEND
  5
843
  8
0
  6
CONTINUOUS
 62
     7
  0
POLYLINE
  5
35D
  8
0
  6
CONTINUOUS
 62
     7
 66
     1
 10
0.0
 20
0.0
 30
0.0
  0
VERTEX
  5
803
  8
0
  6
CONTINUOUS
 62
     7
 10
572.6633495558
 20
254.5724998456
 30
0.0
  0
VERTEX
  5
804
  8
0
  6
CONTINUOUS
 62
     7
 10
573.8114542235
 20
254.3332706434
 30
0.0
  0
VERTEX
  5
805
  8
0
  6
CONTINUOUS
 62
     7
 10
574.9134308566
 20
254.0124367219
 30
0.0
  0
VERTEX
  5
806
  8
0
  6
CONTINUOUS
 62
     7
 10
575.9339219798
 20
253.6124597532
 30
0.0
  0
VERTEX
  5
807
  8
0
  6
CONTINUOUS
 62
     7
 10
576.8566972483
 20
253.1549881441
 30
0.0
  0
VERTEX
  5
808
  8
0
  6
CONTINUOUS
 62
     7
 10
577.7143544424
 20
252.6421676618
 30
0.0
  0
VERTEX
  5
809
  8
0
  6
CONTINUOUS
 62
     7
 10
578.4342176188
 20
252.1441470129
 30
0.0
  0
VERTEX
  5
80A
  8
0
  6
CONTINUOUS
 62
     7
 10
578.9406007994
 20
251.7520140153
 30
0.0
  0
VERTEX
  5
80B
  8
0
  6
CONTINUOUS
 62
     7
 10
579.3105429877
 20
251.4352808935
 30
0.0
  0
VERTEX
  5
80C
  8
0
  6
CONTINUOUS
 62
     7
 10
579.4593757857
 20
251.2938450319
 30
0.0
  0
VERTEX
  5
80D
  8
0
  6
CONTINUOUS
 62
     7
 10
579.5499033202
 20
251.1946748239
 30
0.0
  0
SEQEND
  5
842
  8
0
  6
CONTINUOUS
 62
     7
  0
POLYLINE
  5
35E
  8
0
  6
CONTINUOUS
 62
     7
 66
     1
 10
0.0
 20
0.0
 30
0.0
  0
VERTEX
  5
80E
  8
0
  6
CONTINUOUS
 62
     7
 10
513.2586105634
 20
255.0304959756
 30
0.0
  0
VERTEX
  5
80F
  8
0
  6
CONTINUOUS
 62
     7
 10
513.8420290221
 20
255.248142336
 30
0.0
  0
VERTEX
  5
810
  8
0
  6
CONTINUOUS
 62
     7
 10
514.6118051279
 20
255.4379533273
 30
0.0
  0
VERTEX
  5
811
  8
0
  6
CONTINUOUS
 62
     7
 10
515.5020332802
 20
255.575926159
 30
0.0
  0
VERTEX
  5
812
  8
0
  6
CONTINUOUS
 62
     7
 10
516.5367565025
 20
255.6598494989
 30
0.0
  0
VERTEX
  5
813
  8
0
  6
CONTINUOUS
 62
     7
 10
517.208371209
 20
255.6806038362
 30
0.0
  0
VERTEX
  5
814
  8
0
  6
CONTINUOUS
 62
     7
 10
517.9134837259
 20
255.6791792852
 30
0.0
  0
SEQEND
  5
841
  8
0
  6
CONTINUOUS
 62
     7
  0
ARC
  5
35F
  8
0
  6
CONTINUOUS
 62
     7
 10
559.7480323979
 20
155.389923567
 30
0.0
 40
109.9523078995111
 50
115.0124018468
 51
117.0454636396
  0
POLYLINE
  5
360
  8
0
  6
CONTINUOUS
 62
     7
 66
     1
 10
0.0
 20
0.0
 30
0.0
  0
VERTEX
  5
815
  8
0
  6
CONTINUOUS
 62
     7
 10
580.9856838454
 20
249.2364893896
 30
0.0
  0
VERTEX
  5
816
  8
0
  6
CONTINUOUS
 62
     7
 10
580.9914952982
 20
249.227948044
 30
0.0
  0
VERTEX
  5
817
  8
0
  6
CONTINUOUS
 62
     7
 10
580.906963991
 20
249.3512223703
 30
0.0
  0
VERTEX
  5
818
  8
0
  6
CONTINUOUS
 62
     7
 10
580.719966339
 20
249.6199916345
 30
0.0
  0
VERTEX
  5
819
  8
0
  6
CONTINUOUS
 62
     7
 10
580.5131501425
 20
249.9120067102
 30
0.0
  0
VERTEX
  5
81A
  8
0
  6
CONTINUOUS
 62
     7
 10
580.2492982615
 20
250.2759049875
 30
0.0
  0
VERTEX
  5
81B
  8
0
  6
CONTINUOUS
 62
     7
 10
579.9280351866
 20
250.706125353
 30
0.0
  0
VERTEX
  5
81C
  8
0
  6
CONTINUOUS
 62
     7
 10
579.5499033202
 20
251.1946748239
 30
0.0
  0
SEQEND
  5
840
  8
0
  6
CONTINUOUS
 62
     7
  0
POLYLINE
  5
361
  8
0
  6
CONTINUOUS
 62
     7
 66
     1
 10
0.0
 20
0.0
 30
0.0
  0
VERTEX
  5
81D
  8
0
  6
CONTINUOUS
 62
     7
 10
572.6633495558
 20
254.5725058061
 30
0.0
  0
VERTEX
  5
81E
  8
0
  6
CONTINUOUS
 62
     7
 10
570.2663249243
 20
254.8688422185
 30
0.0
  0
VERTEX
  5
81F
  8
0
  6
CONTINUOUS
 62
     7
 10
567.9266340006
 20
254.9991260511
 30
0.0
  0
VERTEX
  5
820
  8
0
  6
CONTINUOUS
 62
     7
 10
565.632230686
 20
255.0223718626
 30
0.0
  0
VERTEX
  5
821
  8
0
  6
CONTINUOUS
 62
     7
 10
563.3743590582
 20
254.9904714567
 30
0.0
  0
VERTEX
  5
822
  8
0
  6
CONTINUOUS
 62
     7
 10
561.143828081
 20
254.9541245443
 30
0.0
  0
VERTEX
  5
823
  8
0
  6
CONTINUOUS
 62
     7
 10
558.9163905848
 20
254.9527238351
 30
0.0
  0
VERTEX
  5
824
  8
0
  6
CONTINUOUS
 62
     7
 10
556.6754883994
 20
254.9845765573
 30
0.0
  0
VERTEX
  5
825
  8
0
  6
CONTINUOUS
 62
     7
 10
550.4694289435
 20
255.136151169
 30
0.0
  0
VERTEX
  5
826
  8
0
  6
CONTINUOUS
 62
     7
 10
544.2654884327
 20
255.2418659669
 30
0.0
  0
VERTEX
  5
827
  8
0
  6
CONTINUOUS
 62
     7
 10
540.9679717291
 20
255.2887271387
 30
0.0
  0
VERTEX
  5
828
  8
0
  6
CONTINUOUS
 62
     7
 10
537.6677042712
 20
255.3415785772
 30
0.0
  0
VERTEX
  5
829
  8
0
  6
CONTINUOUS
 62
     7
 10
534.36688249
 20
255.3991328222
 30
0.0
  0
VERTEX
  5
82A
  8
0
  6
CONTINUOUS
 62
     7
 10
531.0686922539
 20
255.4575632555
 30
0.0
  0
VERTEX
  5
82B
  8
0
  6
CONTINUOUS
 62
     7
 10
527.7735090721
 20
255.5141757471
 30
0.0
  0
VERTEX
  5
82C
  8
0
  6
CONTINUOUS
 62
     7
 10
524.4813687075
 20
255.5699060899
 30
0.0
  0
VERTEX
  5
82D
  8
0
  6
CONTINUOUS
 62
     7
 10
521.2050936092
 20
255.6244443399
 30
0.0
  0
VERTEX
  5
82E
  8
0
  6
CONTINUOUS
 62
     7
 10
517.9134896863
 20
255.6792567712
 30
0.0
  0
SEQEND
  5
83F
  8
0
  6
CONTINUOUS
 62
     7
  0
POLYLINE
  5
362
  8
0
  6
CONTINUOUS
 62
     7
 66
     1
 10
0.0
 20
0.0
 30
0.0
  0
VERTEX
  5
82F
  8
0
  6
CONTINUOUS
 62
     7
 10
551.0760909785
 20
253.9392600996
 30
0.0
  0
VERTEX
  5
830
  8
0
  6
CONTINUOUS
 62
     7
 10
553.4818953741
 20
253.8979242784
 30
0.0
  0
VERTEX
  5
831
  8
0
  6
CONTINUOUS
 62
     7
 10
557.2773641814
 20
253.8066218835
 30
0.0
  0
VERTEX
  5
832
  8
0
  6
CONTINUOUS
 62
     7
 10
561.0739356745
 20
253.7647973043
 30
0.0
  0
SEQEND
  5
83E
  8
0
  6
CONTINUOUS
 62
     7
  0
POLYLINE
  5
363
  8
0
  6
CONTINUOUS
 62
     7
 66
     1
 10
0.0
 20
0.0
 30
0.0
  0
VERTEX
  5
833
  8
0
  6
CONTINUOUS
 62
     7
 10
532.96466236
 20
254.3720613462
 30
0.0
  0
VERTEX
  5
834
  8
0
  6
CONTINUOUS
 62
     7
 10
535.3730476368
 20
254.4298301679
 30
0.0
  0
VERTEX
  5
835
  8
0
  6
CONTINUOUS
 62
     7
 10
538.2307535876
 20
254.3012331468
 30
0.0
  0
VERTEX
  5
836
  8
0
  6
CONTINUOUS
 62
     7
 10
541.0762197245
 20
254.1143070203
 30
0.0
  0
SEQEND
  5
83D
  8
0
  6
CONTINUOUS
 62
     7
  0
LINE
  5
364
  8
0
  6
CONTINUOUS
 62
     7
 10
531.1118072737
 20
254.2877088529
 30
0.0
 11
532.96466236
 21
254.3720613462
 31
0.0
  0
POLYLINE
  5
365
  8
0
  6
CONTINUOUS
 62
     7
 66
     1
 10
0.0
 20
0.0
 30
0.0
  0
VERTEX
  5
837
  8
0
  6
CONTINUOUS
 62
     7
 10
521.0848665703
 20
254.4627676946
 30
0.0
  0
VERTEX
  5
838
  8
0
  6
CONTINUOUS
 62
     7
 10
522.2646272648
 20
254.545928095
 30
0.0
  0
VERTEX
  5
839
  8
0
  6
CONTINUOUS
 62
     7
 10
523.4591266979
 20
254.5393656236
 30
0.0
  0
VERTEX
  5
83A
  8
0
  6
CONTINUOUS
 62
     7
 10
524.7797704209
 20
254.4664154989
 30
0.0
  0
VERTEX
  5
83B
  8
0
  6
CONTINUOUS
 62
     7
 10
526.1045954097
 20
254.3752203924
 30
0.0
  0
SEQEND
  5
83C
  8
0
  6
CONTINUOUS
 62
     7
  0
LINE
  5
366
  8
0
  6
CONTINUOUS
 62
     7
 10
507.5700952578
 20
227.2157202703
 30
0.0
 11
506.9700951595
 21
227.2157202703
 31
0.0
  0
LINE
  5
367
  8
0
  6
CONTINUOUS
 62
     7
 10
506.9700951595
 20
227.2157202703
 30
0.0
 11
506.9700951595
 21
228.0157218915
 31
0.0
  0
LINE
  5
368
  8
0
  6
CONTINUOUS
 62
     7
 10
507.5700952578
 20
229.2157243234
 30
0.0
 11
507.5700952578
 21
227.2157202703
 31
0.0
  0
LINE
  5
369
  8
0
  6
CONTINUOUS
 62
     7
 10
496.9700950105
 20
227.2157202703
 30
0.0
 11
496.3700949121
 21
227.2157202703
 31
0.0
  0
LINE
  5
36A
  8
0
  6
CONTINUOUS
 62
     7
 10
496.9700950105
 20
228.0157218915
 30
0.0
 11
496.9700950105
 21
227.2157202703
 31
0.0
  0
LINE
  5
36B
  8
0
  6
CONTINUOUS
 62
     7
 10
496.3700949121
 20
227.2157202703
 30
0.0
 11
496.3700949121
 21
229.2157243234
 31
0.0
  0
ARC
  5
36C
  8
0
  6
CONTINUOUS
 62
     7
 10
506.570095085
 20
236.6157218439
 30
0.0
 40
0.4000000000000909
 50
0.0
 51
90.0
  0
ARC
  5
36D
  8
0
  6
CONTINUOUS
 62
     7
 10
497.370095085
 20
236.6157218439
 30
0.0
 40
0.4000000000000341
 50
90.0
 51
180.0
  0
ARC
  5
36E
  8
0
  6
CONTINUOUS
 62
     7
 10
506.570095085
 20
236.6157218439
 30
0.0
 40
1.0
 50
0.0
 51
90.0
  0
LINE
  5
36F
  8
0
  6
CONTINUOUS
 62
     7
 10
497.370095076
 20
237.6157234651
 30
0.0
 11
506.5700950939
 21
237.6157234651
 31
0.0
  0
ARC
  5
370
  8
0
  6
CONTINUOUS
 62
     7
 10
497.370095085
 20
236.6157218439
 30
0.0
 40
1.0
 50
90.0
 51
180.0
  0
LINE
  5
371
  8
0
  6
CONTINUOUS
 62
     7
 10
496.9700950105
 20
236.0157202226
 30
0.0
 11
496.9700950105
 21
236.6157244188
 31
0.0
  0
LINE
  5
372
  8
0
  6
CONTINUOUS
 62
     7
 10
497.370095076
 20
237.0157192689
 30
0.0
 11
497.9700951744
 21
237.0157192689
 31
0.0
  0
LINE
  5
373
  8
0
  6
CONTINUOUS
 62
     7
 10
505.9700949956
 20
237.0157192689
 30
0.0
 11
506.5700950939
 21
237.0157192689
 31
0.0
  0
LINE
  5
374
  8
0
  6
CONTINUOUS
 62
     7
 10
506.9700951595
 20
236.6157244188
 30
0.0
 11
506.9700951595
 21
236.0157202226
 31
0.0
  0
LINE
  5
375
  8
0
  6
CONTINUOUS
 62
     7
 10
496.3700949121
 20
229.2157243234
 30
0.0
 11
496.3700949121
 21
236.6157244188
 31
0.0
  0
LINE
  5
376
  8
0
  6
CONTINUOUS
 62
     7
 10
507.5700952578
 20
236.6157244188
 30
0.0
 11
507.5700952578
 21
229.2157243234
 31
0.0
  0
ARC
  5
377
  8
0
  6
CONTINUOUS
 62
     7
 10
566.470095085
 20
251.0673519621
 30
0.0
 40
2.0
 50
280.7804509646
 51
0.0
  0
ARC
  5
378
  8
0
  6
CONTINUOUS
 62
     7
 10
492.0257265278
 20
642.043100558
 30
0.0
 40
400.0000000000002
 50
274.5077079787
 51
280.7804509646
  0
ARC
  5
379
  8
0
  6
CONTINUOUS
 62
     7
 10
510.8880969072
 20
402.7854758442
 30
0.0
 40
160.0000000000002
 50
273.0746772222
 51
274.5077079787
  0
ARC
  5
37A
  8
0
  6
CONTINUOUS
 62
     7
 10
520.1673824369
 20
230.0345138785
 30
0.0
 40
13.0
 50
93.0746772222
 51
121.4611845106
  0
ARC
  5
37B
  8
0
  6
CONTINUOUS
 62
     7
 10
515.470095085
 20
237.7114593345
 30
0.0
 40
4.000000000000057
 50
121.4611845106
 51
180.0
  0
LINE
  5
37C
  8
0
  6
CONTINUOUS
 62
     7
 10
511.4700949658
 20
235.8157227975
 30
0.0
 11
511.4700949658
 21
237.7114604455
 31
0.0
  0
ARC
  5
37D
  8
0
  6
CONTINUOUS
 62
     7
 10
509.470095085
 20
235.8157218439
 30
0.0
 40
2.0
 50
270.0
 51
0.0
  0
LINE
  5
37E
  8
0
  6
CONTINUOUS
 62
     7
 10
507.5700952578
 20
233.8157247049
 30
0.0
 11
509.470095383
 21
233.8157247049
 31
0.0
  0
LINE
  5
37F
  8
0
  6
CONTINUOUS
 62
     7
 10
495.3700951208
 20
233.8157247049
 30
0.0
 11
496.3700949121
 21
233.8157247049
 31
0.0
  0
ARC
  5
380
  8
0
  6
CONTINUOUS
 62
     7
 10
501.370095085
 20
238.8625495115
 30
0.0
 40
8.000000000000057
 50
148.4862321611
 51
180.0
  0
LINE
  5
381
  8
0
  6
CONTINUOUS
 62
     7
 10
507.2700950224
 20
252.1157215578
 30
0.0
 11
507.2700950224
 21
252.3185084802
 31
0.0
  0
LINE
  5
382
  8
0
  6
CONTINUOUS
 62
     7
 10
568.4700972308
 20
252.3185084802
 30
0.0
 11
568.4700972308
 21
251.0673533422
 31
0.0
  0
LINE
  5
383
  8
0
  6
CONTINUOUS
 62
     7
 10
493.3700947929
 20
238.8625513059
 30
0.0
 11
493.3700947929
 21
235.8157227975
 31
0.0
  0
ARC
  5
384
  8
0
  6
CONTINUOUS
 62
     7
 10
495.370095085
 20
235.8157218439
 30
0.0
 40
2.000000000000057
 50
180.0
 51
270.0
  0
ARC
  5
385
  8
0
  6
CONTINUOUS
 62
     7
 10
511.6002701219
 20
232.5901083029
 30
0.0
 40
19.99999999999996
 50
102.5040575207
 51
148.4862321611
  0
LINE
  5
386
  8
0
  6
CONTINUOUS
 62
     7
 10
507.2700950224
 20
253.3105801088
 30
0.0
 11
507.3269142676
 21
253.3105801088
 31
0.0
  0
LINE
  5
387
  8
0
  6
CONTINUOUS
 62
     7
 10
507.3269142676
 20
253.3105801088
 30
0.0
 11
507.3355655093
 21
253.312469576
 31
0.0
  0
LINE
  5
388
  8
0
  6
CONTINUOUS
 62
     7
 10
568.4700972308
 20
253.3185075265
 30
0.0
 11
568.4700972308
 21
252.3185084802
 31
0.0
  0
LINE
  5
389
  8
0
  6
CONTINUOUS
 62
     7
 10
507.2700950224
 20
252.3185084802
 30
0.0
 11
507.2700950224
 21
253.3105801088
 31
0.0
  0
ENDSEC
  0
EOF
