  0
SECTION
  2
HEADER
  9
$ACADVER
  1
AC1009
  9
$DWGCODEPAGE
  3
ansi_1252
  9
$INSBASE
 10
0.0
 20
0.0
 30
0.0
  9
$EXTMIN
 10
0.0
 20
0.0
 30
0.0
  9
$EXTMAX
 10
420.0
 20
297.0
 30
0.0
  9
$LIMMIN
 10
0.0
 20
0.0
  9
$LIMMAX
 10
420.0
 20
297.0
  9
$ORTHOMODE
 70
     0
  9
$REGENMODE
 70
     1
  9
$FILLMODE
 70
     1
  9
$QTEXTMODE
 70
     0
  9
$MIRRTEXT
 70
     1
  9
$DRAGMODE
 70
     2
  9
$LTSCALE
 40
1.0
  9
$OSMODE
 70
    37
  9
$ATTMODE
 70
     1
  9
$TEXTSIZE
 40
3.5
  9
$TRACEWID
 40
1.0
  9
$TEXTSTYLE
  7
STANDARD
  9
$CLAYER
  8
0
  9
$CELTYPE
  6
BYLAYER
  9
$CECOLOR
 62
   256
  9
$DIMSCALE
 40
1.0
  9
$DIMASZ
 40
4.0
  9
$DIMEXO
 40
0.0
  9
$DIMDLI
 40
3.75
  9
$DIMRND
 40
0.0
  9
$DIMDLE
 40
0.0
  9
$DIMEXE
 40
2.0
  9
$DIMTP
 40
0.0
  9
$DIMTM
 40
0.0
  9
$DIMTXT
 40
3.5
  9
$DIMCEN
 40
2.5
  9
$DIMTSZ
 40
0.0
  9
$DIMTOL
 70
     0
  9
$DIMLIM
 70
     0
  9
$DIMTIH
 70
     1
  9
$DIMTOH
 70
     1
  9
$DIMSE1
 70
     0
  9
$DIMSE2
 70
     0
  9
$DIMTAD
 70
     1
  9
$DIMZIN
 70
     0
  9
$DIMBLK
  1

  9
$DIMASO
 70
     1
  9
$DIMSHO
 70
     1
  9
$DIMPOST
  1

  9
$DIMAPOST
  1

  9
$DIMALT
 70
     0
  9
$DIMALTD
 70
     3
  9
$DIMALTF
 40
0.0393700787
  9
$DIMLFAC
 40
5.0
  9
$DIMTOFL
 70
     1
  9
$DIMTVP
 40
0.0
  9
$DIMTIX
 70
     0
  9
$DIMSOXD
 70
     0
  9
$DIMSAH
 70
     0
  9
$DIMBLK1
  1

  9
$DIMBLK2
  1

  9
$DIMSTYLE
  2
ISO-25
  9
$DIMCLRD
 70
     0
  9
$DIMCLRE
 70
     0
  9
$DIMCLRT
 70
     0
  9
$DIMTFAC
 40
1.0
  9
$DIMGAP
 40
1.524
  9
$LUNITS
 70
     2
  9
$LUPREC
 70
     2
  9
$SKETCHINC
 40
1.0
  9
$FILLETRAD
 40
10.0
  9
$AUNITS
 70
     0
  9
$AUPREC
 70
     2
  9
$MENU
  1
.
  9
$ELEVATION
 40
0.0
  9
$PELEVATION
 40
0.0
  9
$THICKNESS
 40
0.0
  9
$LIMCHECK
 70
     0
  9
$CHAMFERA
 40
10.0
  9
$CHAMFERB
 40
10.0
  9
$SKPOLY
 70
     0
  9
$TDCREATE
 40
2457801.407288912
  9
$TDUPDATE
 40
2457801.407289109
  9
$TDINDWG
 40
0.0000000116
  9
$TDUSRTIMER
 40
0.0000000116
  9
$USRTIMER
 70
     1
  9
$ANGBASE
 50
0.0
  9
$ANGDIR
 70
     0
  9
$PDMODE
 70
     0
  9
$PDSIZE
 40
-1.0
  9
$PLINEWID
 40
0.0
  9
$COORDS
 70
     1
  9
$SPLFRAME
 70
     0
  9
$SPLINETYPE
 70
     6
  9
$SPLINESEGS
 70
     8
  9
$ATTDIA
 70
     0
  9
$ATTREQ
 70
     1
  9
$HANDLING
 70
     1
  9
$HANDSEED
  5
344
  9
$SURFTAB1
 70
     6
  9
$SURFTAB2
 70
     6
  9
$SURFTYPE
 70
     6
  9
$SURFU
 70
     6
  9
$SURFV
 70
     6
  9
$UCSNAME
  2

  9
$UCSORG
 10
0.0
 20
0.0
 30
0.0
  9
$UCSXDIR
 10
1.0
 20
0.0
 30
0.0
  9
$UCSYDIR
 10
0.0
 20
1.0
 30
0.0
  9
$PUCSNAME
  2

  9
$PUCSORG
 10
0.0
 20
0.0
 30
0.0
  9
$PUCSXDIR
 10
1.0
 20
0.0
 30
0.0
  9
$PUCSYDIR
 10
0.0
 20
1.0
 30
0.0
  9
$USERI1
 70
     0
  9
$USERI2
 70
     0
  9
$USERI3
 70
     0
  9
$USERI4
 70
     0
  9
$USERI5
 70
     0
  9
$USERR1
 40
0.0
  9
$USERR2
 40
0.0
  9
$USERR3
 40
0.0
  9
$USERR4
 40
0.0
  9
$USERR5
 40
0.0
  9
$WORLDVIEW
 70
     1
  9
$SHADEDGE
 70
     3
  9
$SHADEDIF
 70
    70
  9
$TILEMODE
 70
     1
  9
$MAXACTVP
 70
    64
  9
$PLIMCHECK
 70
     0
  9
$PEXTMIN
 10
1.0000000000E+20
 20
1.0000000000E+20
 30
1.0000000000E+20
  9
$PEXTMAX
 10
-1.0000000000E+20
 20
-1.0000000000E+20
 30
-1.0000000000E+20
  9
$PLIMMIN
 10
0.0
 20
0.0
  9
$PLIMMAX
 10
420.0
 20
297.0
  9
$UNITMODE
 70
     0
  9
$VISRETAIN
 70
     1
  9
$PLINEGEN
 70
     0
  9
$PSLTSCALE
 70
     1
  0
ENDSEC
  0
SECTION
  2
TABLES
  0
TABLE
  2
VPORT
 70
     1
  0
VPORT
  2
*ACTIVE
 70
     0
 10
0.0
 20
0.0
 11
1.0
 21
1.0
 12
210.0
 22
148.5
 13
0.0
 23
0.0
 14
10.0
 24
10.0
 15
10.0
 25
10.0
 16
0.0
 26
0.0
 36
1.0
 17
0.0
 27
0.0
 37
0.0
 40
297.0
 41
1.4141414141
 42
50.0
 43
0.0
 44
0.0
 50
0.0
 51
0.0
 71
     0
 72
  2000
 73
     1
 74
     3
 75
     0
 76
     0
 77
     0
 78
     0
  0
ENDTAB
  0
TABLE
  2
LTYPE
 70
     6
  0
LTYPE
  2
CONTINUOUS
 70
     0
  3
Solid line
 72
    65
 73
     0
 40
0.0
  0
LTYPE
  2
HIDDEN
 70
     0
  3
Hidden __ __ __ __ __ __ __ __ __ __ __ __ __ __
 72
    65
 73
     2
 40
1.905
 49
1.27
 49
-0.635
  0
LTYPE
  2
PHANTOM
 70
     0
  3
Phantom ______  __  __  ______  __  __  ______
 72
    65
 73
     6
 40
12.7
 49
6.35
 49
-1.27
 49
1.27
 49
-1.27
 49
1.27
 49
-1.27
  0
LTYPE
  2
CENTER
 70
     0
  3
Center ____ _ ____ _ ____ _ ____ _ ____ _ ____
 72
    65
 73
     4
 40
10.16
 49
6.35
 49
-1.27
 49
1.27
 49
-1.27
  0
LTYPE
  2
CENTERX2
 70
     0
  3
Center (2x) ________  __  ________  __  _____
 72
    65
 73
     4
 40
20.32
 49
12.7
 49
-2.54
 49
2.54
 49
-2.54
  0
LTYPE
  2
DOT2
 70
     0
  3
Dot (.5x) ........................................
 72
    65
 73
     2
 40
0.635
 49
0.0
 49
-0.635
  0
ENDTAB
  0
TABLE
  2
LAYER
 70
     2
  0
LAYER
  2
0
 70
     0
 62
     7
  6
CONTINUOUS
  0
LAYER
  2
FORMAT
 70
     0
 62
     7
  6
CONTINUOUS
  0
ENDTAB
  0
TABLE
  2
STYLE
 70
     1
  0
STYLE
  2
STANDARD
 70
     0
 40
0.0
 41
1.0
 50
0.0
 71
     0
 42
3.5
  3
txt
  4

  0
ENDTAB
  0
TABLE
  2
VIEW
 70
     0
  0
ENDTAB
  0
TABLE
  2
UCS
 70
     0
  0
ENDTAB
  0
TABLE
  2
APPID
 70
     1
  0
APPID
  2
ACAD
 70
     0
  0
ENDTAB
  0
TABLE
  2
DIMSTYLE
 70
     1
  0
DIMSTYLE
  2
ISO-25
 70
     0
  3

  4

  5

  6

  7

 40
1.0
 41
2.5
 42
0.625
 43
3.75
 44
1.25
 45
0.0
 46
0.0
 47
0.0
 48
0.0
140
2.5
141
2.5
142
0.0
143
0.0393700787
144
1.0
145
0.0
146
1.0
147
0.625
 71
     0
 72
     0
 73
     0
 74
     0
 75
     0
 76
     0
 77
     1
 78
     8
170
     0
171
     3
172
     1
173
     0
174
     0
175
     0
176
     0
177
     0
178
     0
  0
ENDTAB
  0
ENDSEC
  0
SECTION
  2
BLOCKS
  0
BLOCK
  8
0
  2
$MODEL_SPACE
 70
     0
 10
0.0
 20
0.0
 30
0.0
  3
$MODEL_SPACE
  1

  0
ENDBLK
  5
21
  8
0
  0
BLOCK
 67
     1
  8
0
  2
$PAPER_SPACE
 70
     0
 10
0.0
 20
0.0
 30
0.0
  3
$PAPER_SPACE
  1

  0
ENDBLK
  5
1D
 67
     1
  8
0
  0
ENDSEC
  0
SECTION
  2
ENTITIES
  0
ARC
  5
45
  8
0
  6
CONTINUOUS
 62
     7
 10
139.8329307343
 20
200.7095672027
 30
0.0
 40
0.4000000000000341
 50
0.0
 51
90.0
  0
ARC
  5
46
  8
0
  6
CONTINUOUS
 62
     7
 10
118.4329307343
 20
200.7095672027
 30
0.0
 40
0.4000000000000057
 50
90.0
 51
180.0
  0
LINE
  5
47
  8
0
  6
CONTINUOUS
 62
     7
 10
139.8329304065
 20
201.1095666371
 30
0.0
 11
118.4329309966
 21
201.1095666371
 31
0.0
  0
ARC
  5
48
  8
0
  6
CONTINUOUS
 62
     7
 10
140.7329307343
 20
249.2185679562
 30
0.0
 40
0.4000000000000057
 50
0.0
 51
90.0
  0
ARC
  5
49
  8
0
  6
CONTINUOUS
 62
     7
 10
117.5329307343
 20
249.2185679562
 30
0.0
 40
0.4000000000000057
 50
90.0
 51
180.0
  0
LINE
  5
4A
  8
0
  6
CONTINUOUS
 62
     7
 10
140.7329307403
 20
249.6185683689
 30
0.0
 11
117.5329306628
 21
249.6185683689
 31
0.0
  0
ARC
  5
4B
  8
0
  6
CONTINUOUS
 62
     7
 10
241.3329307343
 20
200.7095672027
 30
0.0
 40
0.4000000000000341
 50
0.0
 51
90.0
  0
ARC
  5
4C
  8
0
  6
CONTINUOUS
 62
     7
 10
230.4329307343
 20
200.7095672027
 30
0.0
 40
0.4000000000000341
 50
90.0
 51
180.0
  0
LINE
  5
4D
  8
0
  6
CONTINUOUS
 62
     7
 10
241.3329312112
 20
201.1095666371
 30
0.0
 11
230.4329344537
 21
201.1095666371
 31
0.0
  0
ARC
  5
4E
  8
0
  6
CONTINUOUS
 62
     7
 10
17.3329307343
 20
200.7095672027
 30
0.0
 40
0.4000000000000341
 50
90.0
 51
180.0
  0
ARC
  5
4F
  8
0
  6
CONTINUOUS
 62
     7
 10
28.2329307343
 20
200.7095672027
 30
0.0
 40
0.4000000000000341
 50
0.0
 51
90.0
  0
LINE
  5
50
  8
0
  6
CONTINUOUS
 62
     7
 10
28.232927015
 20
201.1095666371
 30
0.0
 11
17.3329302575
 21
201.1095666371
 31
0.0
  0
LINE
  5
51
  8
0
  6
CONTINUOUS
 62
     7
 10
141.5329308714
 20
129.3134295426
 30
0.0
 11
142.5329306628
 21
129.3134295426
 31
0.0
  0
LINE
  5
52
  8
0
  6
CONTINUOUS
 62
     7
 10
142.5329306628
 20
134.1134333096
 30
0.0
 11
141.5329308714
 21
134.1134333096
 31
0.0
  0
LINE
  5
53
  8
0
  6
CONTINUOUS
 62
     7
 10
228.1329283025
 20
129.3134295426
 30
0.0
 11
229.1329333093
 21
129.3134295426
 31
0.0
  0
LINE
  5
54
  8
0
  6
CONTINUOUS
 62
     7
 10
229.1329333093
 20
134.1134333096
 30
0.0
 11
228.1329283025
 21
134.1134333096
 31
0.0
  0
LINE
  5
55
  8
0
  6
CONTINUOUS
 62
     7
 10
29.5329281594
 20
129.3134295426
 30
0.0
 11
30.5329331662
 21
129.3134295426
 31
0.0
  0
LINE
  5
56
  8
0
  6
CONTINUOUS
 62
     7
 10
30.5329331662
 20
134.1134333096
 30
0.0
 11
29.5329281594
 21
134.1134333096
 31
0.0
  0
LINE
  5
57
  8
0
  6
CONTINUOUS
 62
     7
 10
116.1329308059
 20
129.3134295426
 30
0.0
 11
117.1329305973
 21
129.3134295426
 31
0.0
  0
LINE
  5
58
  8
0
  6
CONTINUOUS
 62
     7
 10
117.1329305973
 20
134.1134333096
 30
0.0
 11
116.1329308059
 21
134.1134333096
 31
0.0
  0
ARC
  5
59
  8
0
  6
CONTINUOUS
 62
     7
 10
30.9329307343
 20
114.1007445157
 30
0.0
 40
0.4000000000000057
 50
180.0
 51
270.0
  0
ARC
  5
5A
  8
0
  6
CONTINUOUS
 62
     7
 10
115.7329307343
 20
114.1007445157
 30
0.0
 40
0.4000000000000057
 50
270.0
 51
0.0
  0
LINE
  5
5B
  8
0
  6
CONTINUOUS
 62
     7
 10
30.9329280164
 20
113.7007438622
 30
0.0
 11
115.7329299953
 21
113.7007438622
 31
0.0
  0
LINE
  5
5C
  8
0
  6
CONTINUOUS
 62
     7
 10
30.4420658853
 20
127.2389435253
 30
0.0
 11
30.5329331662
 21
127.2389435253
 31
0.0
  0
LINE
  5
5D
  8
0
  6
CONTINUOUS
 62
     7
 10
116.1329308059
 20
127.2389435253
 30
0.0
 11
116.2237980868
 21
127.2389435253
 31
0.0
  0
ARC
  5
5E
  8
0
  6
CONTINUOUS
 62
     7
 10
30.9329307343
 20
200.3371041337
 30
0.0
 40
0.4000000000000057
 50
90.0
 51
180.0
  0
ARC
  5
5F
  8
0
  6
CONTINUOUS
 62
     7
 10
115.7329307343
 20
200.3371041337
 30
0.0
 40
0.4000000000000057
 50
0.0
 51
90.0
  0
LINE
  5
60
  8
0
  6
CONTINUOUS
 62
     7
 10
115.7329299953
 20
200.7371091328
 30
0.0
 11
30.9329280164
 21
200.7371091328
 31
0.0
  0
LINE
  5
61
  8
0
  6
CONTINUOUS
 62
     7
 10
229.2329320218
 20
132.9134308777
 30
0.0
 11
229.1329333093
 21
132.9134308777
 31
0.0
  0
LINE
  5
62
  8
0
  6
CONTINUOUS
 62
     7
 10
141.5329308714
 20
132.9134308777
 30
0.0
 11
141.4329306688
 21
132.9134308777
 31
0.0
  0
LINE
  5
63
  8
0
  6
CONTINUOUS
 62
     7
 10
141.4329306688
 20
130.5134319744
 30
0.0
 11
141.5329308714
 21
130.5134319744
 31
0.0
  0
LINE
  5
64
  8
0
  6
CONTINUOUS
 62
     7
 10
229.1329333093
 20
130.5134319744
 30
0.0
 11
229.2329320218
 21
130.5134319744
 31
0.0
  0
LINE
  5
65
  8
0
  6
CONTINUOUS
 62
     7
 10
230.0329276826
 20
200.2985023938
 30
0.0
 11
229.2329320218
 21
200.2985023938
 31
0.0
  0
LINE
  5
66
  8
0
  6
CONTINUOUS
 62
     7
 10
141.4329306688
 20
200.2985023938
 30
0.0
 11
140.6329305377
 21
200.2985023938
 31
0.0
  0
LINE
  5
67
  8
0
  6
CONTINUOUS
 62
     7
 10
229.1253217961
 20
249.4858645878
 30
0.0
 11
141.5405416395
 21
249.4858645878
 31
0.0
  0
LINE
  5
68
  8
0
  6
CONTINUOUS
 62
     7
 10
117.2329307999
 20
132.9134308777
 30
0.0
 11
117.1329305973
 21
132.9134308777
 31
0.0
  0
LINE
  5
69
  8
0
  6
CONTINUOUS
 62
     7
 10
29.5329281594
 20
132.9134308777
 30
0.0
 11
29.4329294469
 21
132.9134308777
 31
0.0
  0
LINE
  5
6A
  8
0
  6
CONTINUOUS
 62
     7
 10
29.4329294469
 20
130.5134319744
 30
0.0
 11
29.5329281594
 21
130.5134319744
 31
0.0
  0
LINE
  5
6B
  8
0
  6
CONTINUOUS
 62
     7
 10
117.1329305973
 20
130.5134319744
 30
0.0
 11
117.2329307999
 21
130.5134319744
 31
0.0
  0
LINE
  5
6C
  8
0
  6
CONTINUOUS
 62
     7
 10
118.032930931
 20
200.2985023938
 30
0.0
 11
117.2329307999
 21
200.2985023938
 31
0.0
  0
LINE
  5
6D
  8
0
  6
CONTINUOUS
 62
     7
 10
29.4329294469
 20
200.2985023938
 30
0.0
 11
28.6329337861
 21
200.2985023938
 31
0.0
  0
LINE
  5
6E
  8
0
  6
CONTINUOUS
 62
     7
 10
117.1253198292
 20
249.4858645878
 30
0.0
 11
29.5405396726
 21
249.4858645878
 31
0.0
  0
ARC
  5
6F
  8
0
  6
CONTINUOUS
 62
     7
 10
139.8329307343
 20
114.3134306393
 30
0.0
 40
0.4000000000000341
 50
270.0
 51
0.0
  0
LINE
  5
70
  8
0
  6
CONTINUOUS
 62
     7
 10
139.8329304065
 20
113.9134311161
 30
0.0
 11
118.4329309966
 21
113.9134311161
 31
0.0
  0
ARC
  5
71
  8
0
  6
CONTINUOUS
 62
     7
 10
118.4329307343
 20
114.3134306393
 30
0.0
 40
0.3999999999999915
 50
180.0
 51
270.0
  0
LINE
  5
72
  8
0
  6
CONTINUOUS
 62
     7
 10
140.2329304721
 20
196.9483160458
 30
0.0
 11
140.2329304721
 21
114.3134319268
 31
0.0
  0
LINE
  5
73
  8
0
  6
CONTINUOUS
 62
     7
 10
118.032930931
 20
114.3134319268
 30
0.0
 11
118.032930931
 21
196.9483160458
 31
0.0
  0
LINE
  5
74
  8
0
  6
CONTINUOUS
 62
     7
 10
140.2329304721
 20
200.7095717869
 30
0.0
 11
140.2329304721
 21
196.9483160458
 31
0.0
  0
LINE
  5
75
  8
0
  6
CONTINUOUS
 62
     7
 10
118.032930931
 20
196.9483160458
 30
0.0
 11
118.032930931
 21
200.7095717869
 31
0.0
  0
LINE
  5
76
  8
0
  6
CONTINUOUS
 62
     7
 10
118.032930931
 20
200.4025363407
 30
0.0
 11
117.3329310026
 21
200.4025363407
 31
0.0
  0
LINE
  5
77
  8
0
  6
CONTINUOUS
 62
     7
 10
117.3329310026
 20
200.4025363407
 30
0.0
 11
117.3329310026
 21
200.2985023938
 31
0.0
  0
LINE
  5
78
  8
0
  6
CONTINUOUS
 62
     7
 10
117.2329307999
 20
200.0713490925
 30
0.0
 11
117.1329305973
 21
200.0713490925
 31
0.0
  0
LINE
  5
79
  8
0
  6
CONTINUOUS
 62
     7
 10
117.1329305973
 20
200.3458404026
 30
0.0
 11
117.1329305973
 21
200.3851079426
 31
0.0
  0
ARC
  5
7A
  8
0
  6
CONTINUOUS
 62
     7
 10
117.4336443827
 20
199.2467930717
 30
0.0
 40
1.177365502290448
 50
85.1625481608
 51
104.7980250076
  0
LINE
  5
7B
  8
0
  6
CONTINUOUS
 62
     7
 10
118.032930931
 20
200.4199647389
 30
0.0
 11
117.5329306628
 21
200.4199647389
 31
0.0
  0
LINE
  5
7C
  8
0
  6
CONTINUOUS
 62
     7
 10
141.1329308059
 20
249.2185735188
 30
0.0
 11
141.1329308059
 21
200.3851079426
 31
0.0
  0
ARC
  5
7D
  8
0
  6
CONTINUOUS
 62
     7
 10
140.8322170204
 20
199.2467930717
 30
0.0
 40
1.177365502290392
 50
75.2019749924
 51
94.8374518392
  0
LINE
  5
7E
  8
0
  6
CONTINUOUS
 62
     7
 10
117.1329305973
 20
200.3851079426
 30
0.0
 11
117.1329305973
 21
249.2185735188
 31
0.0
  0
LINE
  5
7F
  8
0
  6
CONTINUOUS
 62
     7
 10
140.7329307403
 20
200.4199647389
 30
0.0
 11
140.2329304721
 21
200.4199647389
 31
0.0
  0
LINE
  5
80
  8
0
  6
CONTINUOUS
 62
     7
 10
140.9329304006
 20
200.2985023938
 30
0.0
 11
140.9329304006
 21
200.4025363407
 31
0.0
  0
LINE
  5
81
  8
0
  6
CONTINUOUS
 62
     7
 10
140.9329304006
 20
200.4025363407
 30
0.0
 11
140.2329304721
 21
200.4025363407
 31
0.0
  0
LINE
  5
82
  8
0
  6
CONTINUOUS
 62
     7
 10
141.1329308059
 20
200.2985023938
 30
0.0
 11
141.1329308059
 21
200.3851079426
 31
0.0
  0
ARC
  5
83
  8
0
  6
CONTINUOUS
 62
     7
 10
230.4329307343
 20
114.3134306393
 30
0.0
 40
0.4000000000000057
 50
180.0
 51
270.0
  0
LINE
  5
84
  8
0
  6
CONTINUOUS
 62
     7
 10
241.3329312112
 20
113.9134311161
 30
0.0
 11
230.4329344537
 21
113.9134311161
 31
0.0
  0
ARC
  5
85
  8
0
  6
CONTINUOUS
 62
     7
 10
241.3329307343
 20
114.3134306393
 30
0.0
 40
0.4000000000000057
 50
270.0
 51
0.0
  0
LINE
  5
86
  8
0
  6
CONTINUOUS
 62
     7
 10
241.7329260613
 20
196.9483160458
 30
0.0
 11
241.7329260613
 21
114.3134319268
 31
0.0
  0
LINE
  5
87
  8
0
  6
CONTINUOUS
 62
     7
 10
230.0329276826
 20
114.3134319268
 30
0.0
 11
230.0329276826
 21
196.9483160458
 31
0.0
  0
LINE
  5
88
  8
0
  6
CONTINUOUS
 62
     7
 10
241.7329260613
 20
200.7095717869
 30
0.0
 11
241.7329260613
 21
196.9483160458
 31
0.0
  0
LINE
  5
89
  8
0
  6
CONTINUOUS
 62
     7
 10
230.0329276826
 20
196.9483160458
 30
0.0
 11
230.0329276826
 21
200.7095717869
 31
0.0
  0
ARC
  5
8A
  8
0
  6
CONTINUOUS
 62
     7
 10
28.2329307343
 20
114.3134306393
 30
0.0
 40
0.4000000000000128
 50
270.0
 51
0.0
  0
LINE
  5
8B
  8
0
  6
CONTINUOUS
 62
     7
 10
28.232927015
 20
113.9134311161
 30
0.0
 11
17.3329302575
 21
113.9134311161
 31
0.0
  0
ARC
  5
8C
  8
0
  6
CONTINUOUS
 62
     7
 10
17.3329307343
 20
114.3134306393
 30
0.0
 40
0.3999999999999986
 50
180.0
 51
270.0
  0
LINE
  5
8D
  8
0
  6
CONTINUOUS
 62
     7
 10
28.6329337861
 20
196.9483160458
 30
0.0
 11
28.6329337861
 21
114.3134319268
 31
0.0
  0
LINE
  5
8E
  8
0
  6
CONTINUOUS
 62
     7
 10
16.9329354074
 20
114.3134319268
 30
0.0
 11
16.9329354074
 21
196.9483160458
 31
0.0
  0
LINE
  5
8F
  8
0
  6
CONTINUOUS
 62
     7
 10
28.6329337861
 20
200.7095717869
 30
0.0
 11
28.6329337861
 21
196.9483160458
 31
0.0
  0
LINE
  5
90
  8
0
  6
CONTINUOUS
 62
     7
 10
16.9329354074
 20
196.9483160458
 30
0.0
 11
16.9329354074
 21
200.7095717869
 31
0.0
  0
LINE
  5
91
  8
0
  6
CONTINUOUS
 62
     7
 10
144.8329308536
 20
141.9134282551
 30
0.0
 11
225.8329281117
 21
141.9134282551
 31
0.0
  0
ARC
  5
92
  8
0
  6
CONTINUOUS
 62
     7
 10
225.832928605
 20
139.5134238846
 30
0.0
 40
2.400004370507051
 50
0.0001305203
 51
90.0000117752
  0
ARC
  5
93
  8
0
  6
CONTINUOUS
 62
     7
 10
144.8329265053
 20
139.51343221
 30
0.0
 40
2.399996045117052
 50
89.9998961924
 51
180.0000682337
  0
LINE
  5
94
  8
0
  6
CONTINUOUS
 62
     7
 10
228.1329283025
 20
135.313429781
 30
0.0
 11
228.1329283025
 21
135.2134310685
 31
0.0
  0
LINE
  5
95
  8
0
  6
CONTINUOUS
 62
     7
 10
142.9329314734
 20
135.313429781
 30
0.0
 11
142.4329304602
 21
135.313429781
 31
0.0
  0
LINE
  5
96
  8
0
  6
CONTINUOUS
 62
     7
 10
228.2329329755
 20
135.313429781
 30
0.0
 11
227.7329334523
 21
135.313429781
 31
0.0
  0
LINE
  5
97
  8
0
  6
CONTINUOUS
 62
     7
 10
142.4329304602
 20
139.5134293518
 30
0.0
 11
142.4329304602
 21
135.313429781
 31
0.0
  0
LINE
  5
98
  8
0
  6
CONTINUOUS
 62
     7
 10
228.2329329755
 20
139.5134293518
 30
0.0
 11
228.2329329755
 21
135.313429781
 31
0.0
  0
LINE
  5
99
  8
0
  6
CONTINUOUS
 62
     7
 10
142.5329306628
 20
135.2134310685
 30
0.0
 11
142.5329306628
 21
135.313429781
 31
0.0
  0
LINE
  5
9A
  8
0
  6
CONTINUOUS
 62
     7
 10
142.5329306628
 20
127.7134322605
 30
0.0
 11
142.5329306628
 21
135.2134310685
 31
0.0
  0
LINE
  5
9B
  8
0
  6
CONTINUOUS
 62
     7
 10
228.1329283025
 20
135.2134310685
 30
0.0
 11
228.1329283025
 21
127.7134322605
 31
0.0
  0
ARC
  5
9C
  8
0
  6
CONTINUOUS
 62
     7
 10
142.9329307343
 20
127.7134306393
 30
0.0
 40
0.4000000000000199
 50
180.0
 51
270.0
  0
LINE
  5
9D
  8
0
  6
CONTINUOUS
 62
     7
 10
227.7329334523
 20
127.3134314499
 30
0.0
 11
142.9329314734
 21
127.3134314499
 31
0.0
  0
ARC
  5
9E
  8
0
  6
CONTINUOUS
 62
     7
 10
227.7329307343
 20
127.7134306393
 30
0.0
 40
0.4000000000000199
 50
270.0
 51
0.0
  0
LINE
  5
9F
  8
0
  6
CONTINUOUS
 62
     7
 10
141.5329308714
 20
134.1134333096
 30
0.0
 11
141.5329308714
 21
129.3134295426
 31
0.0
  0
LINE
  5
A0
  8
0
  6
CONTINUOUS
 62
     7
 10
229.1329333093
 20
134.1134333096
 30
0.0
 11
229.1329333093
 21
129.3134295426
 31
0.0
  0
LINE
  5
A1
  8
0
  6
CONTINUOUS
 62
     7
 10
30.5329331662
 20
114.7282683335
 30
0.0
 11
30.5329331662
 21
196.6583871327
 31
0.0
  0
LINE
  5
A2
  8
0
  6
CONTINUOUS
 62
     7
 10
116.1329308059
 20
196.6583871327
 30
0.0
 11
116.1329308059
 21
114.7282683335
 31
0.0
  0
LINE
  5
A3
  8
0
  6
CONTINUOUS
 62
     7
 10
116.1329308059
 20
114.7282683335
 30
0.0
 11
116.1329308059
 21
114.1007446728
 31
0.0
  0
LINE
  5
A4
  8
0
  6
CONTINUOUS
 62
     7
 10
30.5329331662
 20
114.1007446728
 30
0.0
 11
30.5329331662
 21
114.7282683335
 31
0.0
  0
LINE
  5
A5
  8
0
  6
CONTINUOUS
 62
     7
 10
29.5329281594
 20
129.3225609742
 30
0.0
 11
29.5329281594
 21
129.3134295426
 31
0.0
  0
LINE
  5
A6
  8
0
  6
CONTINUOUS
 62
     7
 10
29.5329281594
 20
134.1134333096
 30
0.0
 11
29.5329281594
 21
129.3225609742
 31
0.0
  0
LINE
  5
A7
  8
0
  6
CONTINUOUS
 62
     7
 10
117.1329305973
 20
129.3225609742
 30
0.0
 11
117.1329305973
 21
129.3134295426
 31
0.0
  0
LINE
  5
A8
  8
0
  6
CONTINUOUS
 62
     7
 10
117.1329305973
 20
134.1134333096
 30
0.0
 11
117.1329305973
 21
129.3225609742
 31
0.0
  0
LINE
  5
A9
  8
0
  6
CONTINUOUS
 62
     7
 10
116.1329308059
 20
200.3183626614
 30
0.0
 11
116.1329308059
 21
196.6583871327
 31
0.0
  0
LINE
  5
AA
  8
0
  6
CONTINUOUS
 62
     7
 10
30.5329331662
 20
196.6583871327
 30
0.0
 11
30.5329331662
 21
200.3183626614
 31
0.0
  0
LINE
  5
AB
  8
0
  6
CONTINUOUS
 62
     7
 10
30.5329331662
 20
127.6141309223
 30
0.0
 11
30.4329284932
 21
127.6141309223
 31
0.0
  0
LINE
  5
AC
  8
0
  6
CONTINUOUS
 62
     7
 10
116.2329310085
 20
127.6141309223
 30
0.0
 11
116.1329308059
 21
127.6141309223
 31
0.0
  0
LINE
  5
AD
  8
0
  6
CONTINUOUS
 62
     7
 10
116.2329310085
 20
127.6141309223
 30
0.0
 11
116.2329310085
 21
127.2480749569
 31
0.0
  0
LINE
  5
AE
  8
0
  6
CONTINUOUS
 62
     7
 10
30.4329284932
 20
127.6141309223
 30
0.0
 11
30.4329284932
 21
127.2480749569
 31
0.0
  0
LINE
  5
AF
  8
0
  6
CONTINUOUS
 62
     7
 10
30.8902510907
 20
200.7348203144
 30
0.0
 11
30.4329284932
 21
200.7348203144
 31
0.0
  0
LINE
  5
B0
  8
0
  6
CONTINUOUS
 62
     7
 10
30.4329284932
 20
200.7348203144
 30
0.0
 11
30.4329284932
 21
134.1134333096
 31
0.0
  0
LINE
  5
B1
  8
0
  6
CONTINUOUS
 62
     7
 10
30.4329284932
 20
129.3134295426
 30
0.0
 11
30.4329284932
 21
127.6141309223
 31
0.0
  0
LINE
  5
B2
  8
0
  6
CONTINUOUS
 62
     7
 10
116.2329310085
 20
200.7348203144
 30
0.0
 11
115.775608411
 21
200.7348203144
 31
0.0
  0
LINE
  5
B3
  8
0
  6
CONTINUOUS
 62
     7
 10
116.2329310085
 20
200.7348203144
 30
0.0
 11
116.2329310085
 21
134.1134333096
 31
0.0
  0
LINE
  5
B4
  8
0
  6
CONTINUOUS
 62
     7
 10
116.2329310085
 20
129.3134295426
 30
0.0
 11
116.2329310085
 21
127.6141309223
 31
0.0
  0
LINE
  5
B5
  8
0
  6
CONTINUOUS
 62
     7
 10
116.2329310085
 20
127.2480749569
 30
0.0
 11
116.2237980868
 21
127.2389435253
 31
0.0
  0
LINE
  5
B6
  8
0
  6
CONTINUOUS
 62
     7
 10
30.4329284932
 20
127.2480749569
 30
0.0
 11
30.4420658853
 21
127.2389435253
 31
0.0
  0
LINE
  5
B7
  8
0
  6
CONTINUOUS
 62
     7
 10
30.5329331662
 20
200.3183626614
 30
0.0
 11
30.5329331662
 21
200.3371023617
 31
0.0
  0
LINE
  5
B8
  8
0
  6
CONTINUOUS
 62
     7
 10
116.1329308059
 20
200.3371023617
 30
0.0
 11
116.1329308059
 21
200.3183626614
 31
0.0
  0
LINE
  5
B9
  8
0
  6
CONTINUOUS
 62
     7
 10
141.4329306688
 20
115.3831564865
 30
0.0
 11
141.4329306688
 21
114.5134293518
 31
0.0
  0
LINE
  5
BA
  8
0
  6
CONTINUOUS
 62
     7
 10
141.4329306688
 20
114.5134293518
 30
0.0
 11
140.6329305377
 21
114.5134293518
 31
0.0
  0
LINE
  5
BB
  8
0
  6
CONTINUOUS
 62
     7
 10
140.6329305377
 20
114.5134293518
 30
0.0
 11
140.6329305377
 21
115.3831564865
 31
0.0
  0
LINE
  5
BC
  8
0
  6
CONTINUOUS
 62
     7
 10
230.0329276826
 20
114.5134293518
 30
0.0
 11
229.2329320218
 21
114.5134293518
 31
0.0
  0
LINE
  5
BD
  8
0
  6
CONTINUOUS
 62
     7
 10
229.2329320218
 20
114.5134293518
 30
0.0
 11
229.2329320218
 21
115.3831564865
 31
0.0
  0
LINE
  5
BE
  8
0
  6
CONTINUOUS
 62
     7
 10
141.4329306688
 20
115.3831564865
 30
0.0
 11
141.4329306688
 21
196.3389896832
 31
0.0
  0
LINE
  5
BF
  8
0
  6
CONTINUOUS
 62
     7
 10
140.6329305377
 20
115.3831564865
 30
0.0
 11
140.6329305377
 21
196.3389896832
 31
0.0
  0
LINE
  5
C0
  8
0
  6
CONTINUOUS
 62
     7
 10
229.2329320218
 20
196.3389896832
 30
0.0
 11
229.2329320218
 21
115.3831564865
 31
0.0
  0
LINE
  5
C1
  8
0
  6
CONTINUOUS
 62
     7
 10
141.4329306688
 20
196.9943069897
 30
0.0
 11
141.4329306688
 21
196.3389896832
 31
0.0
  0
LINE
  5
C2
  8
0
  6
CONTINUOUS
 62
     7
 10
140.6329305377
 20
196.3389896832
 30
0.0
 11
140.6329305377
 21
196.9943069897
 31
0.0
  0
LINE
  5
C3
  8
0
  6
CONTINUOUS
 62
     7
 10
229.2329320218
 20
196.3389896832
 30
0.0
 11
229.2329320218
 21
196.9943069897
 31
0.0
  0
LINE
  5
C4
  8
0
  6
CONTINUOUS
 62
     7
 10
229.2329320218
 20
200.2235555134
 30
0.0
 11
229.2329320218
 21
196.9943069897
 31
0.0
  0
LINE
  5
C5
  8
0
  6
CONTINUOUS
 62
     7
 10
141.4329306688
 20
196.9943069897
 30
0.0
 11
141.4329306688
 21
200.2235555134
 31
0.0
  0
LINE
  5
C6
  8
0
  6
CONTINUOUS
 62
     7
 10
140.6329305377
 20
196.9943069897
 30
0.0
 11
140.6329305377
 21
200.2235555134
 31
0.0
  0
LINE
  5
C7
  8
0
  6
CONTINUOUS
 62
     7
 10
229.2329320218
 20
200.2235555134
 30
0.0
 11
229.2329320218
 21
200.2985023938
 31
0.0
  0
LINE
  5
C8
  8
0
  6
CONTINUOUS
 62
     7
 10
141.4329306688
 20
200.2985023938
 30
0.0
 11
141.4329306688
 21
200.2235555134
 31
0.0
  0
LINE
  5
C9
  8
0
  6
CONTINUOUS
 62
     7
 10
140.6329305377
 20
200.2235555134
 30
0.0
 11
140.6329305377
 21
200.2985023938
 31
0.0
  0
LINE
  5
CA
  8
0
  6
CONTINUOUS
 62
     7
 10
141.5329308714
 20
136.9082593403
 30
0.0
 11
141.5329308714
 21
249.4782590351
 31
0.0
  0
POLYLINE
  5
CB
  8
0
  6
CONTINUOUS
 62
     7
 66
     1
 10
0.0
 20
0.0
 30
0.0
  0
VERTEX
  5
2C6
  8
0
  6
CONTINUOUS
 62
     7
 10
141.5329308714
 20
249.4782590351
 30
0.0
  0
VERTEX
  5
2C7
  8
0
  6
CONTINUOUS
 62
     7
 10
141.5633150842
 20
249.4782590351
 30
0.0
  0
VERTEX
  5
2C8
  8
0
  6
CONTINUOUS
 62
     7
 10
141.6535453405
 20
249.4177245579
 30
0.0
  0
VERTEX
  5
2C9
  8
0
  6
CONTINUOUS
 62
     7
 10
141.8008798267
 20
249.2984914265
 30
0.0
  0
VERTEX
  5
2CA
  8
0
  6
CONTINUOUS
 62
     7
 10
142.000841489
 20
249.1241716824
 30
0.0
  0
VERTEX
  5
2CB
  8
0
  6
CONTINUOUS
 62
     7
 10
142.247355869
 20
248.9000820599
 30
0.0
  0
VERTEX
  5
2CC
  8
0
  6
CONTINUOUS
 62
     7
 10
142.5329306628
 20
248.6330174885
 30
0.0
  0
VERTEX
  5
2CD
  8
0
  6
CONTINUOUS
 62
     7
 10
142.8488904144
 20
248.3311080418
 30
0.0
  0
VERTEX
  5
2CE
  8
0
  6
CONTINUOUS
 62
     7
 10
143.1856343057
 20
248.0035089932
 30
0.0
  0
VERTEX
  5
2CF
  8
0
  6
CONTINUOUS
 62
     7
 10
143.5329311993
 20
247.6601862393
 30
0.0
  0
SEQEND
  5
343
  8
0
  6
CONTINUOUS
 62
     7
  0
ARC
  5
CC
  8
0
  6
CONTINUOUS
 62
     7
 10
147.6668911728
 20
132.5206798861
 30
0.0
 40
7.54163924130288
 50
133.9482492279
 51
144.424121265
  0
POLYLINE
  5
CD
  8
0
  6
CONTINUOUS
 62
     7
 66
     1
 10
0.0
 20
0.0
 30
0.0
  0
VERTEX
  5
2D0
  8
0
  6
CONTINUOUS
 62
     7
 10
227.1329292562
 20
247.6601862393
 30
0.0
  0
VERTEX
  5
2D1
  8
0
  6
CONTINUOUS
 62
     7
 10
227.4802276399
 20
248.0035089932
 30
0.0
  0
VERTEX
  5
2D2
  8
0
  6
CONTINUOUS
 62
     7
 10
227.816970041
 20
248.3311080418
 30
0.0
  0
VERTEX
  5
2D3
  8
0
  6
CONTINUOUS
 62
     7
 10
228.1329283025
 20
248.6330174885
 30
0.0
  0
VERTEX
  5
2D4
  8
0
  6
CONTINUOUS
 62
     7
 10
228.4185060765
 20
248.9000820599
 30
0.0
  0
VERTEX
  5
2D5
  8
0
  6
CONTINUOUS
 62
     7
 10
228.6650189664
 20
249.1241716824
 30
0.0
  0
VERTEX
  5
2D6
  8
0
  6
CONTINUOUS
 62
     7
 10
228.8649806287
 20
249.2984914265
 30
0.0
  0
VERTEX
  5
2D7
  8
0
  6
CONTINUOUS
 62
     7
 10
229.0123173501
 20
249.4177245579
 30
0.0
  0
VERTEX
  5
2D8
  8
0
  6
CONTINUOUS
 62
     7
 10
229.1025468614
 20
249.4782590351
 30
0.0
  0
VERTEX
  5
2D9
  8
0
  6
CONTINUOUS
 62
     7
 10
229.1329333093
 20
249.4782590351
 30
0.0
  0
SEQEND
  5
342
  8
0
  6
CONTINUOUS
 62
     7
  0
LINE
  5
CE
  8
0
  6
CONTINUOUS
 62
     7
 10
229.1329333093
 20
249.4782590351
 30
0.0
 11
229.1329333093
 21
136.9082593403
 31
0.0
  0
ARC
  5
CF
  8
0
  6
CONTINUOUS
 62
     7
 10
222.9983884104
 20
132.5201712867
 30
0.0
 40
7.542410614855423
 50
35.5764375294
 51
46.051238904
  0
LINE
  5
D0
  8
0
  6
CONTINUOUS
 62
     7
 10
141.5329308714
 20
136.5073406182
 30
0.0
 11
142.4329304602
 21
136.5073406182
 31
0.0
  0
LINE
  5
D1
  8
0
  6
CONTINUOUS
 62
     7
 10
228.2329329755
 20
136.5073406182
 30
0.0
 11
229.1329333093
 21
136.5073406182
 31
0.0
  0
LINE
  5
D2
  8
0
  6
CONTINUOUS
 62
     7
 10
229.1329333093
 20
136.9082593403
 30
0.0
 11
229.1329333093
 21
136.5073406182
 31
0.0
  0
LINE
  5
D3
  8
0
  6
CONTINUOUS
 62
     7
 10
141.5329308714
 20
136.9082593403
 30
0.0
 11
141.5329308714
 21
136.5073406182
 31
0.0
  0
LINE
  5
D4
  8
0
  6
CONTINUOUS
 62
     7
 10
141.4329306688
 20
249.1769575558
 30
0.0
 11
141.4329306688
 21
200.2985023938
 31
0.0
  0
LINE
  5
D5
  8
0
  6
CONTINUOUS
 62
     7
 10
229.2329320218
 20
249.1769575558
 30
0.0
 11
229.1329333093
 21
249.1769575558
 31
0.0
  0
LINE
  5
D6
  8
0
  6
CONTINUOUS
 62
     7
 10
141.5329308714
 20
249.1769575558
 30
0.0
 11
141.4329306688
 21
249.1769575558
 31
0.0
  0
LINE
  5
D7
  8
0
  6
CONTINUOUS
 62
     7
 10
229.2329320218
 20
249.1769575558
 30
0.0
 11
229.2329320218
 21
200.2985023938
 31
0.0
  0
LINE
  5
D8
  8
0
  6
CONTINUOUS
 62
     7
 10
142.5329306628
 20
134.9134289704
 30
0.0
 11
141.4329306688
 21
134.9134289704
 31
0.0
  0
LINE
  5
D9
  8
0
  6
CONTINUOUS
 62
     7
 10
229.2329320218
 20
134.9134289704
 30
0.0
 11
228.1329283025
 21
134.9134289704
 31
0.0
  0
LINE
  5
DA
  8
0
  6
CONTINUOUS
 62
     7
 10
140.6329305377
 20
116.513433405
 30
0.0
 11
140.2329304721
 21
116.513433405
 31
0.0
  0
LINE
  5
DB
  8
0
  6
CONTINUOUS
 62
     7
 10
140.2329304721
 20
196.5134286366
 30
0.0
 11
140.6329305377
 21
196.5134286366
 31
0.0
  0
LINE
  5
DC
  8
0
  6
CONTINUOUS
 62
     7
 10
118.032930931
 20
114.5134293518
 30
0.0
 11
117.2329307999
 21
114.5134293518
 31
0.0
  0
LINE
  5
DD
  8
0
  6
CONTINUOUS
 62
     7
 10
117.2329307999
 20
114.5134293518
 30
0.0
 11
117.2329307999
 21
115.3831564865
 31
0.0
  0
LINE
  5
DE
  8
0
  6
CONTINUOUS
 62
     7
 10
29.4329294469
 20
114.5134293518
 30
0.0
 11
28.6329337861
 21
114.5134293518
 31
0.0
  0
LINE
  5
DF
  8
0
  6
CONTINUOUS
 62
     7
 10
29.4329294469
 20
115.3831564865
 30
0.0
 11
29.4329294469
 21
114.5134293518
 31
0.0
  0
LINE
  5
E0
  8
0
  6
CONTINUOUS
 62
     7
 10
117.2329307999
 20
196.3389896832
 30
0.0
 11
117.2329307999
 21
115.3831564865
 31
0.0
  0
LINE
  5
E1
  8
0
  6
CONTINUOUS
 62
     7
 10
29.4329294469
 20
115.3831564865
 30
0.0
 11
29.4329294469
 21
196.3389896832
 31
0.0
  0
LINE
  5
E2
  8
0
  6
CONTINUOUS
 62
     7
 10
117.2329307999
 20
196.3389896832
 30
0.0
 11
117.2329307999
 21
196.9943069897
 31
0.0
  0
LINE
  5
E3
  8
0
  6
CONTINUOUS
 62
     7
 10
29.4329294469
 20
196.9943069897
 30
0.0
 11
29.4329294469
 21
196.3389896832
 31
0.0
  0
LINE
  5
E4
  8
0
  6
CONTINUOUS
 62
     7
 10
29.4329294469
 20
196.9943069897
 30
0.0
 11
29.4329294469
 21
200.2235555134
 31
0.0
  0
LINE
  5
E5
  8
0
  6
CONTINUOUS
 62
     7
 10
117.2329307999
 20
200.2235555134
 30
0.0
 11
117.2329307999
 21
196.9943069897
 31
0.0
  0
LINE
  5
E6
  8
0
  6
CONTINUOUS
 62
     7
 10
117.2329307999
 20
200.2235555134
 30
0.0
 11
117.2329307999
 21
200.2985023938
 31
0.0
  0
LINE
  5
E7
  8
0
  6
CONTINUOUS
 62
     7
 10
29.4329294469
 20
200.2985023938
 30
0.0
 11
29.4329294469
 21
200.2235555134
 31
0.0
  0
ARC
  5
E8
  8
0
  6
CONTINUOUS
 62
     7
 10
110.9989702959
 20
132.5206798861
 30
0.0
 40
7.541639241306129
 50
35.575878735
 51
46.0517507721
  0
ARC
  5
E9
  8
0
  6
CONTINUOUS
 62
     7
 10
35.6674730583
 20
132.5201712867
 30
0.0
 40
7.542410614857477
 50
133.948761096
 51
144.4235624706
  0
POLYLINE
  5
EA
  8
0
  6
CONTINUOUS
 62
     7
 66
     1
 10
0.0
 20
0.0
 30
0.0
  0
VERTEX
  5
2DA
  8
0
  6
CONTINUOUS
 62
     7
 10
115.1329302694
 20
247.6601862393
 30
0.0
  0
VERTEX
  5
2DB
  8
0
  6
CONTINUOUS
 62
     7
 10
115.480227163
 20
248.0035089932
 30
0.0
  0
VERTEX
  5
2DC
  8
0
  6
CONTINUOUS
 62
     7
 10
115.8169710543
 20
248.3311080418
 30
0.0
  0
VERTEX
  5
2DD
  8
0
  6
CONTINUOUS
 62
     7
 10
116.1329308059
 20
248.6330174885
 30
0.0
  0
VERTEX
  5
2DE
  8
0
  6
CONTINUOUS
 62
     7
 10
116.4185055997
 20
248.9000820599
 30
0.0
  0
VERTEX
  5
2DF
  8
0
  6
CONTINUOUS
 62
     7
 10
116.6650199797
 20
249.1241716824
 30
0.0
  0
VERTEX
  5
2E0
  8
0
  6
CONTINUOUS
 62
     7
 10
116.864981642
 20
249.2984914265
 30
0.0
  0
VERTEX
  5
2E1
  8
0
  6
CONTINUOUS
 62
     7
 10
117.0123161282
 20
249.4177245579
 30
0.0
  0
VERTEX
  5
2E2
  8
0
  6
CONTINUOUS
 62
     7
 10
117.1025463845
 20
249.4782590351
 30
0.0
  0
VERTEX
  5
2E3
  8
0
  6
CONTINUOUS
 62
     7
 10
117.1329305973
 20
249.4782590351
 30
0.0
  0
SEQEND
  5
341
  8
0
  6
CONTINUOUS
 62
     7
  0
LINE
  5
EB
  8
0
  6
CONTINUOUS
 62
     7
 10
117.1329305973
 20
249.4782590351
 30
0.0
 11
117.1329305973
 21
249.2185735188
 31
0.0
  0
LINE
  5
EC
  8
0
  6
CONTINUOUS
 62
     7
 10
117.1329305973
 20
200.3458404026
 30
0.0
 11
117.1329305973
 21
136.9082593403
 31
0.0
  0
LINE
  5
ED
  8
0
  6
CONTINUOUS
 62
     7
 10
29.5329281594
 20
136.9082593403
 30
0.0
 11
29.5329281594
 21
249.4782590351
 31
0.0
  0
POLYLINE
  5
EE
  8
0
  6
CONTINUOUS
 62
     7
 66
     1
 10
0.0
 20
0.0
 30
0.0
  0
VERTEX
  5
2E4
  8
0
  6
CONTINUOUS
 62
     7
 10
29.5329281594
 20
249.4782590351
 30
0.0
  0
VERTEX
  5
2E5
  8
0
  6
CONTINUOUS
 62
     7
 10
29.5633146073
 20
249.4782590351
 30
0.0
  0
VERTEX
  5
2E6
  8
0
  6
CONTINUOUS
 62
     7
 10
29.6535441186
 20
249.4177245579
 30
0.0
  0
VERTEX
  5
2E7
  8
0
  6
CONTINUOUS
 62
     7
 10
29.80088084
 20
249.2984914265
 30
0.0
  0
VERTEX
  5
2E8
  8
0
  6
CONTINUOUS
 62
     7
 10
30.0008425023
 20
249.1241716824
 30
0.0
  0
VERTEX
  5
2E9
  8
0
  6
CONTINUOUS
 62
     7
 10
30.2473553922
 20
248.9000820599
 30
0.0
  0
VERTEX
  5
2EA
  8
0
  6
CONTINUOUS
 62
     7
 10
30.5329331662
 20
248.6330174885
 30
0.0
  0
VERTEX
  5
2EB
  8
0
  6
CONTINUOUS
 62
     7
 10
30.8488914277
 20
248.3311080418
 30
0.0
  0
VERTEX
  5
2EC
  8
0
  6
CONTINUOUS
 62
     7
 10
31.1856338288
 20
248.0035089932
 30
0.0
  0
VERTEX
  5
2ED
  8
0
  6
CONTINUOUS
 62
     7
 10
31.5329322125
 20
247.6601862393
 30
0.0
  0
SEQEND
  5
340
  8
0
  6
CONTINUOUS
 62
     7
  0
LINE
  5
EF
  8
0
  6
CONTINUOUS
 62
     7
 10
29.5329281594
 20
136.5073406182
 30
0.0
 11
30.4329284932
 21
136.5073406182
 31
0.0
  0
LINE
  5
F0
  8
0
  6
CONTINUOUS
 62
     7
 10
116.2329310085
 20
136.5073406182
 30
0.0
 11
117.1329305973
 21
136.5073406182
 31
0.0
  0
LINE
  5
F1
  8
0
  6
CONTINUOUS
 62
     7
 10
117.1329305973
 20
136.9082593403
 30
0.0
 11
117.1329305973
 21
136.5073406182
 31
0.0
  0
LINE
  5
F2
  8
0
  6
CONTINUOUS
 62
     7
 10
29.5329281594
 20
136.9082593403
 30
0.0
 11
29.5329281594
 21
136.5073406182
 31
0.0
  0
LINE
  5
F3
  8
0
  6
CONTINUOUS
 62
     7
 10
29.4329294469
 20
249.1769575558
 30
0.0
 11
29.4329294469
 21
200.2985023938
 31
0.0
  0
LINE
  5
F4
  8
0
  6
CONTINUOUS
 62
     7
 10
29.5329281594
 20
249.1769575558
 30
0.0
 11
29.4329294469
 21
249.1769575558
 31
0.0
  0
LINE
  5
F5
  8
0
  6
CONTINUOUS
 62
     7
 10
30.4329284932
 20
134.9134289704
 30
0.0
 11
29.4329294469
 21
134.9134289704
 31
0.0
  0
LINE
  5
F6
  8
0
  6
CONTINUOUS
 62
     7
 10
117.2329307999
 20
134.9134289704
 30
0.0
 11
116.2329310085
 21
134.9134289704
 31
0.0
  0
LINE
  5
F7
  8
0
  6
CONTINUOUS
 62
     7
 10
297.8490400675
 20
249.1768741093
 30
0.0
 11
302.8802711133
 21
249.61704249
 31
0.0
  0
ARC
  5
F8
  8
0
  6
CONTINUOUS
 62
     7
 10
302.915133096
 20
249.2185679562
 30
0.0
 40
0.4000000000000117
 50
22.2493115522
 51
95.0
  0
LINE
  5
F9
  8
0
  6
CONTINUOUS
 62
     7
 10
295.2257956926
 20
198.9370607815
 30
0.0
 11
295.2257956926
 21
114.3134319268
 31
0.0
  0
LINE
  5
FA
  8
0
  6
CONTINUOUS
 62
     7
 10
330.7812716428
 20
113.9134311161
 30
0.0
 11
295.2257956926
 21
113.9134311161
 31
0.0
  0
LINE
  5
FB
  8
0
  6
CONTINUOUS
 62
     7
 10
295.2257956926
 20
113.9134311161
 30
0.0
 11
295.2257956926
 21
114.3134319268
 31
0.0
  0
LINE
  5
FC
  8
0
  6
CONTINUOUS
 62
     7
 10
295.2257956926
 20
199.2847942791
 30
0.0
 11
295.2304663546
 21
199.2851995907
 31
0.0
  0
POLYLINE
  5
FD
  8
0
  6
CONTINUOUS
 62
     7
 66
     1
 10
0.0
 20
0.0
 30
0.0
  0
VERTEX
  5
2EE
  8
0
  6
CONTINUOUS
 62
     7
 10
295.2304663546
 20
199.2851995907
 30
0.0
  0
VERTEX
  5
2EF
  8
0
  6
CONTINUOUS
 62
     7
 10
295.2293909458
 20
199.2974900685
 30
0.0
  0
VERTEX
  5
2F0
  8
0
  6
CONTINUOUS
 62
     7
 10
295.2284494269
 20
199.3082546673
 30
0.0
  0
VERTEX
  5
2F1
  8
0
  6
CONTINUOUS
 62
     7
 10
295.2276458302
 20
199.3174457035
 30
0.0
  0
VERTEX
  5
2F2
  8
0
  6
CONTINUOUS
 62
     7
 10
295.2269835965
 20
199.3250154934
 30
0.0
  0
VERTEX
  5
2F3
  8
0
  6
CONTINUOUS
 62
     7
 10
295.2264655618
 20
199.3309282742
 30
0.0
  0
VERTEX
  5
2F4
  8
0
  6
CONTINUOUS
 62
     7
 10
295.2260939443
 20
199.3351840458
 30
0.0
  0
VERTEX
  5
2F5
  8
0
  6
CONTINUOUS
 62
     7
 10
295.2258703354
 20
199.3377351246
 30
0.0
  0
VERTEX
  5
2F6
  8
0
  6
CONTINUOUS
 62
     7
 10
295.2257956926
 20
199.3385934315
 30
0.0
  0
SEQEND
  5
33F
  8
0
  6
CONTINUOUS
 62
     7
  0
LINE
  5
FE
  8
0
  6
CONTINUOUS
 62
     7
 10
295.2257956926
 20
199.3385934315
 30
0.0
 11
315.4507632915
 21
201.1080407582
 31
0.0
  0
LINE
  5
FF
  8
0
  6
CONTINUOUS
 62
     7
 10
295.2257956926
 20
198.9370607815
 30
0.0
 11
295.2257956926
 21
199.2847942791
 31
0.0
  0
ARC
  5
100
  8
0
  6
CONTINUOUS
 62
     7
 10
315.48562593
 20
200.7095672027
 30
0.0
 40
0.4000000000000397
 50
65.0
 51
95.0
  0
LINE
  5
101
  8
0
  6
CONTINUOUS
 62
     7
 10
315.6546737615
 20
201.0720872364
 30
0.0
 11
323.7207050983
 21
197.3108434162
 31
0.0
  0
LINE
  5
102
  8
0
  6
CONTINUOUS
 62
     7
 10
323.9501352969
 20
196.9831728421
 30
0.0
 11
331.1797495547
 21
114.3482946835
 31
0.0
  0
ARC
  5
103
  8
0
  6
CONTINUOUS
 62
     7
 10
323.5516566729
 20
196.9483152964
 30
0.0
 40
0.3999999999999819
 50
5.0
 51
65.0
  0
ARC
  5
104
  8
0
  6
CONTINUOUS
 62
     7
 10
330.7812722921
 20
114.3134306393
 30
0.0
 40
0.3999999999999915
 50
270.0
 51
5.0
  0
LINE
  5
105
  8
0
  6
CONTINUOUS
 62
     7
 10
328.7681128446
 20
141.9134282551
 30
0.0
 11
392.4257959787
 21
141.9134282551
 31
0.0
  0
ARC
  5
106
  8
0
  6
CONTINUOUS
 62
     7
 10
392.4258035294
 20
139.5134369026
 30
0.0
 40
2.399991352544899
 50
359.9998197387
 51
90.0001802613
  0
LINE
  5
107
  8
0
  6
CONTINUOUS
 62
     7
 10
394.8257948819
 20
135.313429781
 30
0.0
 11
329.3455388013
 21
135.313429781
 31
0.0
  0
LINE
  5
108
  8
0
  6
CONTINUOUS
 62
     7
 10
394.8257948819
 20
139.5134293518
 30
0.0
 11
394.8257948819
 21
135.313429781
 31
0.0
  0
LINE
  5
109
  8
0
  6
CONTINUOUS
 62
     7
 10
390.0688733522
 20
127.3134314499
 30
0.0
 11
330.0454463426
 21
127.3134314499
 31
0.0
  0
ARC
  5
10A
  8
0
  6
CONTINUOUS
 62
     7
 10
390.0688737544
 20
127.7134306393
 30
0.0
 40
0.4000000000000244
 50
270.0
 51
330.0
  0
LINE
  5
10B
  8
0
  6
CONTINUOUS
 62
     7
 10
394.745412058
 20
135.0134276829
 30
0.0
 11
390.4152836267
 21
127.513428875
 31
0.0
  0
ARC
  5
10C
  8
0
  6
CONTINUOUS
 62
     7
 10
394.2257956926
 20
135.3134306393
 30
0.0
 40
0.6000000000000013
 50
330.0
 51
0.0
  0
LINE
  5
10D
  8
0
  6
CONTINUOUS
 62
     7
 10
326.0029609862
 20
113.9134311161
 30
0.0
 11
323.5893454019
 21
113.7022637806
 31
0.0
  0
ARC
  5
10E
  8
0
  6
CONTINUOUS
 62
     7
 10
323.5544825825
 20
114.1007445157
 30
0.0
 40
0.4000000000000313
 50
207.9230096112
 51
275.0
  0
LINE
  5
10F
  8
0
  6
CONTINUOUS
 62
     7
 10
295.2257956926
 20
248.9474558316
 30
0.0
 11
297.8490320582
 21
249.1769575558
 31
0.0
  0
LINE
  5
110
  8
0
  6
CONTINUOUS
 62
     7
 10
297.8490320582
 20
249.1769575558
 30
0.0
 11
302.15627659
 21
199.9449276409
 31
0.0
  0
LINE
  5
111
  8
0
  6
CONTINUOUS
 62
     7
 10
295.2257956926
 20
199.2847942791
 30
0.0
 11
295.2257956926
 21
248.9474558316
 31
0.0
  0
LINE
  5
112
  8
0
  6
CONTINUOUS
 62
     7
 10
302.4402435485
 20
249.4782590351
 30
0.0
 11
297.8577475611
 21
249.0773462735
 31
0.0
  0
LINE
  5
113
  8
0
  6
CONTINUOUS
 62
     7
 10
304.6069439117
 20
247.6601862393
 30
0.0
 11
308.7311621371
 21
200.5201601467
 31
0.0
  0
ARC
  5
114
  8
0
  6
CONTINUOUS
 62
     7
 10
302.6145584032
 20
247.4858737321
 30
0.0
 40
1.999996216115846
 50
5.0000388656
 51
95.0001063734
  0
ARC
  5
115
  8
0
  6
CONTINUOUS
 62
     7
 10
118.4329307343
 20
35.550050987
 30
0.0
 40
0.3999999999999986
 50
180.0
 51
270.0
  0
LINE
  5
116
  8
0
  6
CONTINUOUS
 62
     7
 10
118.4329309966
 20
35.1500508257
 30
0.0
 11
139.8329304065
 21
35.1500508257
 31
0.0
  0
ARC
  5
117
  8
0
  6
CONTINUOUS
 62
     7
 10
139.8329307343
 20
35.550050987
 30
0.0
 40
0.4000000000000341
 50
270.0
 51
0.0
  0
ARC
  5
118
  8
0
  6
CONTINUOUS
 62
     7
 10
241.3329307343
 20
35.550050987
 30
0.0
 40
0.4000000000000057
 50
270.0
 51
0.0
  0
LINE
  5
119
  8
0
  6
CONTINUOUS
 62
     7
 10
230.4329344537
 20
35.1500508257
 30
0.0
 11
241.3329312112
 21
35.1500508257
 31
0.0
  0
ARC
  5
11A
  8
0
  6
CONTINUOUS
 62
     7
 10
230.4329307343
 20
35.550050987
 30
0.0
 40
0.4000000000000057
 50
180.0
 51
270.0
  0
LINE
  5
11B
  8
0
  6
CONTINUOUS
 62
     7
 10
17.3329302575
 20
35.1500508257
 30
0.0
 11
28.232927015
 21
35.1500508257
 31
0.0
  0
ARC
  5
11C
  8
0
  6
CONTINUOUS
 62
     7
 10
28.2329307343
 20
35.550050987
 30
0.0
 40
0.4000000000000128
 50
270.0
 51
0.0
  0
ARC
  5
11D
  8
0
  6
CONTINUOUS
 62
     7
 10
17.3329307343
 20
35.550050987
 30
0.0
 40
0.3999999999999986
 50
180.0
 51
270.0
  0
LINE
  5
11E
  8
0
  6
CONTINUOUS
 62
     7
 10
141.5329308714
 20
38.7055274912
 30
0.0
 11
142.4329304602
 21
38.7055274912
 31
0.0
  0
LINE
  5
11F
  8
0
  6
CONTINUOUS
 62
     7
 10
142.4329304602
 20
43.505528278
 30
0.0
 11
141.5329308714
 21
43.505528278
 31
0.0
  0
LINE
  5
120
  8
0
  6
CONTINUOUS
 62
     7
 10
228.2329329755
 20
38.7055274912
 30
0.0
 11
229.1329333093
 21
38.7055274912
 31
0.0
  0
LINE
  5
121
  8
0
  6
CONTINUOUS
 62
     7
 10
229.1329333093
 20
43.505528278
 30
0.0
 11
228.2329329755
 21
43.505528278
 31
0.0
  0
LINE
  5
122
  8
0
  6
CONTINUOUS
 62
     7
 10
114.0421041753
 20
57.1327117153
 30
0.0
 11
32.6237568166
 21
57.1327117153
 31
0.0
  0
LINE
  5
123
  8
0
  6
CONTINUOUS
 62
     7
 10
29.5329281594
 20
38.7055274912
 30
0.0
 11
30.5329331662
 21
38.7055274912
 31
0.0
  0
LINE
  5
124
  8
0
  6
CONTINUOUS
 62
     7
 10
30.5329331662
 20
43.505528278
 30
0.0
 11
29.5329281594
 21
43.505528278
 31
0.0
  0
LINE
  5
125
  8
0
  6
CONTINUOUS
 62
     7
 10
116.1329308059
 20
38.7055274912
 30
0.0
 11
117.1329305973
 21
38.7055274912
 31
0.0
  0
LINE
  5
126
  8
0
  6
CONTINUOUS
 62
     7
 10
117.1329305973
 20
43.505528278
 30
0.0
 11
116.1329308059
 21
43.505528278
 31
0.0
  0
LINE
  5
127
  8
0
  6
CONTINUOUS
 62
     7
 10
30.9329280164
 20
35.2042374083
 30
0.0
 11
115.7329299953
 21
35.2042374083
 31
0.0
  0
ARC
  5
128
  8
0
  6
CONTINUOUS
 62
     7
 10
30.9329307343
 20
35.6042388704
 30
0.0
 40
0.3999999999999986
 50
180.0
 51
270.0
  0
ARC
  5
129
  8
0
  6
CONTINUOUS
 62
     7
 10
115.7329307343
 20
35.6042388704
 30
0.0
 40
0.3999999999999986
 50
270.0
 51
0.0
  0
LINE
  5
12A
  8
0
  6
CONTINUOUS
 62
     7
 10
143.3586189057
 20
52.2167933055
 30
0.0
 11
227.3072430398
 21
52.2167933055
 31
0.0
  0
LINE
  5
12B
  8
0
  6
CONTINUOUS
 62
     7
 10
229.2329320218
 20
42.3055288263
 30
0.0
 11
229.1329333093
 21
42.3055288263
 31
0.0
  0
LINE
  5
12C
  8
0
  6
CONTINUOUS
 62
     7
 10
141.5329308714
 20
42.3055288263
 30
0.0
 11
141.4329306688
 21
42.3055288263
 31
0.0
  0
LINE
  5
12D
  8
0
  6
CONTINUOUS
 62
     7
 10
141.4329306688
 20
39.9055269428
 30
0.0
 11
141.5329308714
 21
39.9055269428
 31
0.0
  0
LINE
  5
12E
  8
0
  6
CONTINUOUS
 62
     7
 10
229.1329333093
 20
39.9055269428
 30
0.0
 11
229.2329320218
 21
39.9055269428
 31
0.0
  0
LINE
  5
12F
  8
0
  6
CONTINUOUS
 62
     7
 10
140.6329305377
 20
35.8592537113
 30
0.0
 11
141.4329306688
 21
35.8592537113
 31
0.0
  0
LINE
  5
130
  8
0
  6
CONTINUOUS
 62
     7
 10
229.2329320218
 20
35.8592537113
 30
0.0
 11
230.0329276826
 21
35.8592537113
 31
0.0
  0
LINE
  5
131
  8
0
  6
CONTINUOUS
 62
     7
 10
117.2329307999
 20
42.3055288263
 30
0.0
 11
117.1329305973
 21
42.3055288263
 31
0.0
  0
LINE
  5
132
  8
0
  6
CONTINUOUS
 62
     7
 10
29.5329281594
 20
42.3055288263
 30
0.0
 11
29.4329294469
 21
42.3055288263
 31
0.0
  0
LINE
  5
133
  8
0
  6
CONTINUOUS
 62
     7
 10
29.4329294469
 20
39.9055269428
 30
0.0
 11
29.5329281594
 21
39.9055269428
 31
0.0
  0
LINE
  5
134
  8
0
  6
CONTINUOUS
 62
     7
 10
117.1329305973
 20
39.9055269428
 30
0.0
 11
117.2329307999
 21
39.9055269428
 31
0.0
  0
LINE
  5
135
  8
0
  6
CONTINUOUS
 62
     7
 10
117.2329307999
 20
35.8592537113
 30
0.0
 11
118.032930931
 21
35.8592537113
 31
0.0
  0
LINE
  5
136
  8
0
  6
CONTINUOUS
 62
     7
 10
28.6329337861
 20
35.8592537113
 30
0.0
 11
29.4329294469
 21
35.8592537113
 31
0.0
  0
LINE
  5
137
  8
0
  6
CONTINUOUS
 62
     7
 10
117.1329305973
 20
63.4161901542
 30
0.0
 11
117.1329305973
 21
63.8649252125
 31
0.0
  0
ARC
  5
138
  8
0
  6
CONTINUOUS
 62
     7
 10
117.5089073724
 20
67.1368568358
 30
0.0
 40
3.207952907741886
 50
89.5709269884
 51
94.935191671
  0
LINE
  5
139
  8
0
  6
CONTINUOUS
 62
     7
 10
140.7329307403
 20
70.3447197911
 30
0.0
 11
117.5329306628
 21
70.3447197911
 31
0.0
  0
LINE
  5
13A
  8
0
  6
CONTINUOUS
 62
     7
 10
141.1329308059
 20
70.3098574535
 30
0.0
 11
141.1329308059
 21
63.4161901542
 31
0.0
  0
ARC
  5
13B
  8
0
  6
CONTINUOUS
 62
     7
 10
140.8321711427
 20
69.1712026715
 30
0.0
 40
1.17770585776096
 50
75.2040407567
 51
94.8338105557
  0
LINE
  5
13C
  8
0
  6
CONTINUOUS
 62
     7
 10
141.1329308059
 20
63.4161901542
 30
0.0
 11
141.1329308059
 21
59.1438156434
 31
0.0
  0
ARC
  5
13D
  8
0
  6
CONTINUOUS
 62
     7
 10
140.7336904432
 20
59.1445780993
 30
0.0
 40
0.399241090687265
 50
269.8909736521
 51
359.8905785641
  0
LINE
  5
13E
  8
0
  6
CONTINUOUS
 62
     7
 10
117.1329305973
 20
59.1438156434
 30
0.0
 11
117.1329305973
 21
63.4161901542
 31
0.0
  0
ARC
  5
13F
  8
0
  6
CONTINUOUS
 62
     7
 10
117.5321709599
 20
59.1445780993
 30
0.0
 40
0.3992410906872864
 50
180.109421436
 51
270.1090263479
  0
LINE
  5
140
  8
0
  6
CONTINUOUS
 62
     7
 10
140.7329307403
 20
58.7453377315
 30
0.0
 11
139.8329304065
 21
58.7453377315
 31
0.0
  0
LINE
  5
141
  8
0
  6
CONTINUOUS
 62
     7
 10
139.8329304065
 20
58.7453377315
 30
0.0
 11
118.4329309966
 21
58.7453377315
 31
0.0
  0
LINE
  5
142
  8
0
  6
CONTINUOUS
 62
     7
 10
118.4329309966
 20
58.7453377315
 30
0.0
 11
117.5329306628
 21
58.7453377315
 31
0.0
  0
LINE
  5
143
  8
0
  6
CONTINUOUS
 62
     7
 10
118.032930931
 20
42.7796658941
 30
0.0
 11
118.032930931
 21
50.8456972309
 31
0.0
  0
LINE
  5
144
  8
0
  6
CONTINUOUS
 62
     7
 10
140.2329304721
 20
50.8456972309
 30
0.0
 11
140.2329304721
 21
42.7796658941
 31
0.0
  0
LINE
  5
145
  8
0
  6
CONTINUOUS
 62
     7
 10
140.2329304721
 20
58.7453377315
 30
0.0
 11
140.2329304721
 21
50.8456972309
 31
0.0
  0
LINE
  5
146
  8
0
  6
CONTINUOUS
 62
     7
 10
118.032930931
 20
50.8456972309
 30
0.0
 11
118.032930931
 21
58.7453377315
 31
0.0
  0
LINE
  5
147
  8
0
  6
CONTINUOUS
 62
     7
 10
140.2329304721
 20
42.7796658941
 30
0.0
 11
140.2329304721
 21
35.5500516363
 31
0.0
  0
LINE
  5
148
  8
0
  6
CONTINUOUS
 62
     7
 10
118.032930931
 20
35.5500516363
 30
0.0
 11
118.032930931
 21
42.7796658941
 31
0.0
  0
LINE
  5
149
  8
0
  6
CONTINUOUS
 62
     7
 10
230.0329276826
 20
42.7796658941
 30
0.0
 11
230.0329276826
 21
50.8456972309
 31
0.0
  0
LINE
  5
14A
  8
0
  6
CONTINUOUS
 62
     7
 10
241.7329260613
 20
50.8456972309
 30
0.0
 11
241.7329260613
 21
42.7796658941
 31
0.0
  0
LINE
  5
14B
  8
0
  6
CONTINUOUS
 62
     7
 10
241.3329312112
 20
71.1055275866
 30
0.0
 11
230.4329344537
 21
71.1055275866
 31
0.0
  0
ARC
  5
14C
  8
0
  6
CONTINUOUS
 62
     7
 10
230.3336904597
 20
69.9319924958
 30
0.0
 40
1.177724067672644
 50
85.1660890099
 51
104.7958819317
  0
LINE
  5
14D
  8
0
  6
CONTINUOUS
 62
     7
 10
230.0329276826
 20
50.8456972309
 30
0.0
 11
230.0329276826
 21
71.0706652897
 31
0.0
  0
LINE
  5
14E
  8
0
  6
CONTINUOUS
 62
     7
 10
241.5329286363
 20
71.1055275866
 30
0.0
 11
241.7329260613
 21
71.1055275866
 31
0.0
  0
ARC
  5
14F
  8
0
  6
CONTINUOUS
 62
     7
 10
241.3383217699
 20
67.0520776384
 30
0.0
 40
4.053453532502765
 50
87.2481638344
 51
90.0761958535
  0
LINE
  5
150
  8
0
  6
CONTINUOUS
 62
     7
 10
241.7329260613
 20
71.1055275866
 30
0.0
 11
241.7329260613
 21
50.8456972309
 31
0.0
  0
LINE
  5
151
  8
0
  6
CONTINUOUS
 62
     7
 10
241.5329286363
 20
71.1008569245
 30
0.0
 11
241.5329286363
 21
71.1055275866
 31
0.0
  0
LINE
  5
152
  8
0
  6
CONTINUOUS
 62
     7
 10
230.0329276826
 20
35.5500516363
 30
0.0
 11
230.0329276826
 21
42.7796658941
 31
0.0
  0
LINE
  5
153
  8
0
  6
CONTINUOUS
 62
     7
 10
241.7329260613
 20
42.7796658941
 30
0.0
 11
241.7329260613
 21
35.5500516363
 31
0.0
  0
LINE
  5
154
  8
0
  6
CONTINUOUS
 62
     7
 10
241.5329286363
 20
71.1055275866
 30
0.0
 11
241.3329312112
 21
71.1055275866
 31
0.0
  0
LINE
  5
155
  8
0
  6
CONTINUOUS
 62
     7
 10
16.9329354074
 20
42.7796658941
 30
0.0
 11
16.9329354074
 21
50.8456972309
 31
0.0
  0
LINE
  5
156
  8
0
  6
CONTINUOUS
 62
     7
 10
28.6329337861
 20
50.8456972309
 30
0.0
 11
28.6329337861
 21
42.7796658941
 31
0.0
  0
LINE
  5
157
  8
0
  6
CONTINUOUS
 62
     7
 10
16.9329354074
 20
71.1055275866
 30
0.0
 11
17.1329328324
 21
71.1055275866
 31
0.0
  0
ARC
  5
158
  8
0
  6
CONTINUOUS
 62
     7
 10
17.3275396988
 20
67.0520776384
 30
0.0
 40
4.053453532502678
 50
89.9238041465
 51
92.7518361656
  0
LINE
  5
159
  8
0
  6
CONTINUOUS
 62
     7
 10
16.9329354074
 20
50.8456972309
 30
0.0
 11
16.9329354074
 21
71.1055275866
 31
0.0
  0
LINE
  5
15A
  8
0
  6
CONTINUOUS
 62
     7
 10
17.1329328324
 20
71.1055275866
 30
0.0
 11
17.1329328324
 21
71.1008569245
 31
0.0
  0
ARC
  5
15B
  8
0
  6
CONTINUOUS
 62
     7
 10
28.332171009
 20
69.9319924958
 30
0.0
 40
1.177724067672711
 50
75.2041180683
 51
94.8339109901
  0
LINE
  5
15C
  8
0
  6
CONTINUOUS
 62
     7
 10
28.6329337861
 20
71.0706652897
 30
0.0
 11
28.6329337861
 21
50.8456972309
 31
0.0
  0
LINE
  5
15D
  8
0
  6
CONTINUOUS
 62
     7
 10
28.232927015
 20
71.1055275866
 30
0.0
 11
17.3329302575
 21
71.1055275866
 31
0.0
  0
LINE
  5
15E
  8
0
  6
CONTINUOUS
 62
     7
 10
16.9329354074
 20
35.5500516363
 30
0.0
 11
16.9329354074
 21
42.7796658941
 31
0.0
  0
LINE
  5
15F
  8
0
  6
CONTINUOUS
 62
     7
 10
28.6329337861
 20
42.7796658941
 30
0.0
 11
28.6329337861
 21
35.5500516363
 31
0.0
  0
LINE
  5
160
  8
0
  6
CONTINUOUS
 62
     7
 10
17.3329302575
 20
71.1055275866
 30
0.0
 11
17.1329328324
 21
71.1055275866
 31
0.0
  0
LINE
  5
161
  8
0
  6
CONTINUOUS
 62
     7
 10
142.4329304602
 20
44.9055281349
 30
0.0
 11
228.2329329755
 21
44.9055281349
 31
0.0
  0
POLYLINE
  5
162
  8
0
  6
CONTINUOUS
 62
     7
 66
     1
 10
0.0
 20
0.0
 30
0.0
  0
VERTEX
  5
2F7
  8
0
  6
CONTINUOUS
 62
     7
 10
228.2329329755
 20
44.9055281349
 30
0.0
  0
VERTEX
  5
2F8
  8
0
  6
CONTINUOUS
 62
     7
 10
228.2033809926
 20
44.8759791323
 30
0.0
  0
VERTEX
  5
2F9
  8
0
  6
CONTINUOUS
 62
     7
 10
228.1154641416
 20
44.7880622812
 30
0.0
  0
VERTEX
  5
2FA
  8
0
  6
CONTINUOUS
 62
     7
 10
227.971346071
 20
44.6439442106
 30
0.0
  0
VERTEX
  5
2FB
  8
0
  6
CONTINUOUS
 62
     7
 10
227.7745732572
 20
44.4471684166
 30
0.0
  0
VERTEX
  5
2FC
  8
0
  6
CONTINUOUS
 62
     7
 10
227.5299855973
 20
44.202583737
 30
0.0
  0
VERTEX
  5
2FD
  8
0
  6
CONTINUOUS
 62
     7
 10
227.2436150815
 20
43.9162132212
 30
0.0
  0
VERTEX
  5
2FE
  8
0
  6
CONTINUOUS
 62
     7
 10
226.9225069787
 20
43.5951051184
 30
0.0
  0
VERTEX
  5
2FF
  8
0
  6
CONTINUOUS
 62
     7
 10
226.5745708253
 20
43.247168965
 30
0.0
  0
VERTEX
  5
300
  8
0
  6
CONTINUOUS
 62
     7
 10
226.2083718087
 20
42.8809699484
 30
0.0
  0
VERTEX
  5
301
  8
0
  6
CONTINUOUS
 62
     7
 10
225.8329281117
 20
42.5055262514
 30
0.0
  0
SEQEND
  5
33E
  8
0
  6
CONTINUOUS
 62
     7
  0
POLYLINE
  5
163
  8
0
  6
CONTINUOUS
 62
     7
 66
     1
 10
0.0
 20
0.0
 30
0.0
  0
VERTEX
  5
302
  8
0
  6
CONTINUOUS
 62
     7
 10
142.4329304602
 20
44.9055281349
 30
0.0
  0
VERTEX
  5
303
  8
0
  6
CONTINUOUS
 62
     7
 10
142.4624779727
 20
44.8759791323
 30
0.0
  0
VERTEX
  5
304
  8
0
  6
CONTINUOUS
 62
     7
 10
142.5503948237
 20
44.7880622812
 30
0.0
  0
VERTEX
  5
305
  8
0
  6
CONTINUOUS
 62
     7
 10
142.6945143845
 20
44.6439442106
 30
0.0
  0
VERTEX
  5
306
  8
0
  6
CONTINUOUS
 62
     7
 10
142.8912901785
 20
44.4471684166
 30
0.0
  0
VERTEX
  5
307
  8
0
  6
CONTINUOUS
 62
     7
 10
143.1358748581
 20
44.202583737
 30
0.0
  0
VERTEX
  5
308
  8
0
  6
CONTINUOUS
 62
     7
 10
143.422246864
 20
43.9162132212
 30
0.0
  0
VERTEX
  5
309
  8
0
  6
CONTINUOUS
 62
     7
 10
143.7433534767
 20
43.5951051184
 30
0.0
  0
VERTEX
  5
30A
  8
0
  6
CONTINUOUS
 62
     7
 10
144.0912896301
 20
43.247168965
 30
0.0
  0
VERTEX
  5
30B
  8
0
  6
CONTINUOUS
 62
     7
 10
144.4574886467
 20
42.8809699484
 30
0.0
  0
VERTEX
  5
30C
  8
0
  6
CONTINUOUS
 62
     7
 10
144.8329308536
 20
42.5055262514
 30
0.0
  0
SEQEND
  5
33D
  8
0
  6
CONTINUOUS
 62
     7
  0
LINE
  5
164
  8
0
  6
CONTINUOUS
 62
     7
 10
228.2329329755
 20
44.9055281349
 30
0.0
 11
228.2329329755
 21
-28.4944716028
 31
0.0
  0
POLYLINE
  5
165
  8
0
  6
CONTINUOUS
 62
     7
 66
     1
 10
0.0
 20
0.0
 30
0.0
  0
VERTEX
  5
30D
  8
0
  6
CONTINUOUS
 62
     7
 10
225.8329281117
 20
-26.0944726995
 30
0.0
  0
VERTEX
  5
30E
  8
0
  6
CONTINUOUS
 62
     7
 10
226.2083718087
 20
-26.4699163965
 30
0.0
  0
VERTEX
  5
30F
  8
0
  6
CONTINUOUS
 62
     7
 10
226.5745708253
 20
-26.8361154131
 30
0.0
  0
VERTEX
  5
310
  8
0
  6
CONTINUOUS
 62
     7
 10
226.9225069787
 20
-27.1840515665
 30
0.0
  0
VERTEX
  5
311
  8
0
  6
CONTINUOUS
 62
     7
 10
227.2436150815
 20
-27.5051596693
 30
0.0
  0
VERTEX
  5
312
  8
0
  6
CONTINUOUS
 62
     7
 10
227.5299855973
 20
-27.7915301851
 30
0.0
  0
VERTEX
  5
313
  8
0
  6
CONTINUOUS
 62
     7
 10
227.7745732572
 20
-28.0361118845
 30
0.0
  0
VERTEX
  5
314
  8
0
  6
CONTINUOUS
 62
     7
 10
227.971346071
 20
-28.2328906587
 30
0.0
  0
VERTEX
  5
315
  8
0
  6
CONTINUOUS
 62
     7
 10
228.1154641416
 20
-28.3770087294
 30
0.0
  0
VERTEX
  5
316
  8
0
  6
CONTINUOUS
 62
     7
 10
228.2033809926
 20
-28.4649255804
 30
0.0
  0
VERTEX
  5
317
  8
0
  6
CONTINUOUS
 62
     7
 10
228.2329329755
 20
-28.4944716028
 30
0.0
  0
SEQEND
  5
33C
  8
0
  6
CONTINUOUS
 62
     7
  0
LINE
  5
166
  8
0
  6
CONTINUOUS
 62
     7
 10
142.4329304602
 20
-28.4944716028
 30
0.0
 11
142.4329304602
 21
44.9055281349
 31
0.0
  0
POLYLINE
  5
167
  8
0
  6
CONTINUOUS
 62
     7
 66
     1
 10
0.0
 20
0.0
 30
0.0
  0
VERTEX
  5
318
  8
0
  6
CONTINUOUS
 62
     7
 10
144.8329308536
 20
-26.0944726995
 30
0.0
  0
VERTEX
  5
319
  8
0
  6
CONTINUOUS
 62
     7
 10
144.4574886467
 20
-26.4699163965
 30
0.0
  0
VERTEX
  5
31A
  8
0
  6
CONTINUOUS
 62
     7
 10
144.0912896301
 20
-26.8361154131
 30
0.0
  0
VERTEX
  5
31B
  8
0
  6
CONTINUOUS
 62
     7
 10
143.7433534767
 20
-27.1840515665
 30
0.0
  0
VERTEX
  5
31C
  8
0
  6
CONTINUOUS
 62
     7
 10
143.422246864
 20
-27.5051596693
 30
0.0
  0
VERTEX
  5
31D
  8
0
  6
CONTINUOUS
 62
     7
 10
143.1358748581
 20
-27.7915301851
 30
0.0
  0
VERTEX
  5
31E
  8
0
  6
CONTINUOUS
 62
     7
 10
142.8912901785
 20
-28.0361118845
 30
0.0
  0
VERTEX
  5
31F
  8
0
  6
CONTINUOUS
 62
     7
 10
142.6945143845
 20
-28.2328906587
 30
0.0
  0
VERTEX
  5
320
  8
0
  6
CONTINUOUS
 62
     7
 10
142.5503948237
 20
-28.3770087294
 30
0.0
  0
VERTEX
  5
321
  8
0
  6
CONTINUOUS
 62
     7
 10
142.4624779727
 20
-28.4649255804
 30
0.0
  0
VERTEX
  5
322
  8
0
  6
CONTINUOUS
 62
     7
 10
142.4329304602
 20
-28.4944716028
 30
0.0
  0
SEQEND
  5
33B
  8
0
  6
CONTINUOUS
 62
     7
  0
LINE
  5
168
  8
0
  6
CONTINUOUS
 62
     7
 10
228.2329329755
 20
-28.4944716028
 30
0.0
 11
142.4329304602
 21
-28.4944716028
 31
0.0
  0
LINE
  5
169
  8
0
  6
CONTINUOUS
 62
     7
 10
142.5329306628
 20
44.9055281349
 30
0.0
 11
142.5329306628
 21
52.4041768976
 31
0.0
  0
LINE
  5
16A
  8
0
  6
CONTINUOUS
 62
     7
 10
228.1329283025
 20
52.4041768976
 30
0.0
 11
228.1329283025
 21
44.9055281349
 31
0.0
  0
LINE
  5
16B
  8
0
  6
CONTINUOUS
 62
     7
 10
141.5329308714
 20
43.505528278
 30
0.0
 11
141.5329308714
 21
38.7055274912
 31
0.0
  0
LINE
  5
16C
  8
0
  6
CONTINUOUS
 62
     7
 10
229.1329333093
 20
43.505528278
 30
0.0
 11
229.1329333093
 21
38.7055274912
 31
0.0
  0
LINE
  5
16D
  8
0
  6
CONTINUOUS
 62
     7
 10
116.1329308059
 20
50.6210517951
 30
0.0
 11
116.1329308059
 21
42.7721944519
 31
0.0
  0
LINE
  5
16E
  8
0
  6
CONTINUOUS
 62
     7
 10
30.5329331662
 20
42.7721944519
 30
0.0
 11
30.5329331662
 21
50.6210517951
 31
0.0
  0
ARC
  5
16F
  8
0
  6
CONTINUOUS
 62
     7
 10
115.8321681978
 20
49.5843331974
 30
0.0
 40
1.177723588195989
 50
75.2041204123
 51
94.8336302062
  0
LINE
  5
170
  8
0
  6
CONTINUOUS
 62
     7
 10
116.1329308059
 20
50.72300554
 30
0.0
 11
116.1329308059
 21
50.6210517951
 31
0.0
  0
ARC
  5
171
  8
0
  6
CONTINUOUS
 62
     7
 10
30.8336899029
 20
49.5843835958
 30
0.0
 40
1.177673361582542
 50
85.1661675043
 51
104.7962295813
  0
LINE
  5
172
  8
0
  6
CONTINUOUS
 62
     7
 10
30.5329331662
 20
50.6210517951
 30
0.0
 11
30.5329331662
 21
50.72300554
 31
0.0
  0
LINE
  5
173
  8
0
  6
CONTINUOUS
 62
     7
 10
116.2329310085
 20
50.7578682967
 30
0.0
 11
115.7329299953
 21
50.7578682967
 31
0.0
  0
LINE
  5
174
  8
0
  6
CONTINUOUS
 62
     7
 10
30.9329280164
 20
50.7578682967
 30
0.0
 11
30.4329284932
 21
50.7578682967
 31
0.0
  0
LINE
  5
175
  8
0
  6
CONTINUOUS
 62
     7
 10
30.4329284932
 20
54.9418863722
 30
0.0
 11
30.4329284932
 21
50.7578682967
 31
0.0
  0
LINE
  5
176
  8
0
  6
CONTINUOUS
 62
     7
 10
116.2329310085
 20
54.9418863722
 30
0.0
 11
116.2329310085
 21
50.7578682967
 31
0.0
  0
LINE
  5
177
  8
0
  6
CONTINUOUS
 62
     7
 10
30.4329284932
 20
50.7578682967
 30
0.0
 11
30.4329284932
 21
44.3606373736
 31
0.0
  0
LINE
  5
178
  8
0
  6
CONTINUOUS
 62
     7
 10
30.5329331662
 20
44.3606373736
 30
0.0
 11
30.4329284932
 21
44.3606373736
 31
0.0
  0
LINE
  5
179
  8
0
  6
CONTINUOUS
 62
     7
 10
116.2329310085
 20
44.3606373736
 30
0.0
 11
116.1329308059
 21
44.3606373736
 31
0.0
  0
LINE
  5
17A
  8
0
  6
CONTINUOUS
 62
     7
 10
116.2329310085
 20
50.7578682967
 30
0.0
 11
116.2329310085
 21
44.3606373736
 31
0.0
  0
ARC
  5
17B
  8
0
  6
CONTINUOUS
 62
     7
 10
114.068940083
 20
54.9687208081
 30
0.0
 40
2.164157298478833
 50
359.2895436372
 51
90.7104953332
  0
ARC
  5
17C
  8
0
  6
CONTINUOUS
 62
     7
 10
32.5969270944
 20
54.9687131506
 30
0.0
 40
2.164164878665022
 50
89.2896709304
 51
180.7102511289
  0
LINE
  5
17D
  8
0
  6
CONTINUOUS
 62
     7
 10
30.5329331662
 20
35.6042382189
 30
0.0
 11
30.5329331662
 21
42.7721944519
 31
0.0
  0
LINE
  5
17E
  8
0
  6
CONTINUOUS
 62
     7
 10
116.1329308059
 20
42.7721944519
 30
0.0
 11
116.1329308059
 21
35.6042382189
 31
0.0
  0
LINE
  5
17F
  8
0
  6
CONTINUOUS
 62
     7
 10
29.5329281594
 20
43.505528278
 30
0.0
 11
29.5329281594
 21
38.7055274912
 31
0.0
  0
LINE
  5
180
  8
0
  6
CONTINUOUS
 62
     7
 10
117.1329305973
 20
43.505528278
 30
0.0
 11
117.1329305973
 21
38.7055274912
 31
0.0
  0
ARC
  5
181
  8
0
  6
CONTINUOUS
 62
     7
 10
143.745778167
 20
63.9272635197
 30
0.0
 40
2.213143108811683
 50
180.9367992377
 51
264.4811018159
  0
ARC
  5
182
  8
0
  6
CONTINUOUS
 62
     7
 10
226.9207589995
 20
63.9266426765
 30
0.0
 40
2.212460146565477
 50
275.5030010018
 51
359.0789915641
  0
LINE
  5
183
  8
0
  6
CONTINUOUS
 62
     7
 10
229.1329333093
 20
63.8910797306
 30
0.0
 11
229.1329333093
 21
54.0424805947
 31
0.0
  0
ARC
  5
184
  8
0
  6
CONTINUOUS
 62
     7
 10
227.3256075547
 20
54.0215509316
 30
0.0
 40
1.807446938095882
 50
263.8805007263
 51
0.6634818092
  0
LINE
  5
185
  8
0
  6
CONTINUOUS
 62
     7
 10
141.5329308714
 20
54.0424805947
 30
0.0
 11
141.5329308714
 21
63.8910797306
 31
0.0
  0
ARC
  5
186
  8
0
  6
CONTINUOUS
 62
     7
 10
143.3408220928
 20
54.0221733758
 30
0.0
 40
1.808005268661427
 50
179.3564496594
 51
276.099461567
  0
LINE
  5
187
  8
0
  6
CONTINUOUS
 62
     7
 10
229.1329333093
 20
68.473575718
 30
0.0
 11
141.5329308714
 21
68.473575718
 31
0.0
  0
LINE
  5
188
  8
0
  6
CONTINUOUS
 62
     7
 10
141.5329308714
 20
63.8910797306
 30
0.0
 11
141.5329308714
 21
68.473575718
 31
0.0
  0
LINE
  5
189
  8
0
  6
CONTINUOUS
 62
     7
 10
229.1329333093
 20
63.8910797306
 30
0.0
 11
229.1329333093
 21
68.473575718
 31
0.0
  0
LINE
  5
18A
  8
0
  6
CONTINUOUS
 62
     7
 10
229.2329320218
 20
71.1055275866
 30
0.0
 11
141.4329306688
 21
71.1055275866
 31
0.0
  0
LINE
  5
18B
  8
0
  6
CONTINUOUS
 62
     7
 10
229.2329320218
 20
71.1055275866
 30
0.0
 11
229.2329320218
 21
68.482291221
 31
0.0
  0
LINE
  5
18C
  8
0
  6
CONTINUOUS
 62
     7
 10
229.2329320218
 20
68.482291221
 30
0.0
 11
141.4329306688
 21
68.482291221
 31
0.0
  0
LINE
  5
18D
  8
0
  6
CONTINUOUS
 62
     7
 10
141.4329306688
 20
71.1055275866
 30
0.0
 11
141.4329306688
 21
68.482291221
 31
0.0
  0
LINE
  5
18E
  8
0
  6
CONTINUOUS
 62
     7
 10
141.5329308714
 20
58.4855270454
 30
0.0
 11
141.4329306688
 21
58.4855270454
 31
0.0
  0
LINE
  5
18F
  8
0
  6
CONTINUOUS
 62
     7
 10
229.2329320218
 20
68.482291221
 30
0.0
 11
229.2329320218
 21
64.1034026512
 31
0.0
  0
LINE
  5
190
  8
0
  6
CONTINUOUS
 62
     7
 10
229.2329320218
 20
58.4855270454
 30
0.0
 11
229.1329333093
 21
58.4855270454
 31
0.0
  0
LINE
  5
191
  8
0
  6
CONTINUOUS
 62
     7
 10
141.4329306688
 20
68.482291221
 30
0.0
 11
141.4329306688
 21
64.1034026512
 31
0.0
  0
LINE
  5
192
  8
0
  6
CONTINUOUS
 62
     7
 10
140.6329305377
 20
50.329005427
 30
0.0
 11
140.6329305377
 21
50.7368233868
 31
0.0
  0
LINE
  5
193
  8
0
  6
CONTINUOUS
 62
     7
 10
141.4329306688
 20
50.7368233868
 30
0.0
 11
141.4329306688
 21
50.329005427
 31
0.0
  0
LINE
  5
194
  8
0
  6
CONTINUOUS
 62
     7
 10
229.2329320218
 20
50.329005427
 30
0.0
 11
229.2329320218
 21
50.7368233868
 31
0.0
  0
LINE
  5
195
  8
0
  6
CONTINUOUS
 62
     7
 10
140.6329305377
 20
50.7368233868
 30
0.0
 11
140.6329305377
 21
58.7453377315
 31
0.0
  0
LINE
  5
196
  8
0
  6
CONTINUOUS
 62
     7
 10
140.6329305377
 20
70.3447197911
 30
0.0
 11
140.6329305377
 21
71.1055275866
 31
0.0
  0
LINE
  5
197
  8
0
  6
CONTINUOUS
 62
     7
 10
141.4329306688
 20
50.7368233868
 30
0.0
 11
141.4329306688
 21
64.1034026512
 31
0.0
  0
LINE
  5
198
  8
0
  6
CONTINUOUS
 62
     7
 10
140.6329305377
 20
71.1055275866
 30
0.0
 11
141.4329306688
 21
71.1055275866
 31
0.0
  0
LINE
  5
199
  8
0
  6
CONTINUOUS
 62
     7
 10
230.0329276826
 20
71.1055275866
 30
0.0
 11
230.0329276826
 21
71.0706652897
 31
0.0
  0
LINE
  5
19A
  8
0
  6
CONTINUOUS
 62
     7
 10
229.2329320218
 20
64.1034026512
 30
0.0
 11
229.2329320218
 21
50.7368233868
 31
0.0
  0
LINE
  5
19B
  8
0
  6
CONTINUOUS
 62
     7
 10
230.0329276826
 20
71.1055275866
 30
0.0
 11
229.2329320218
 21
71.1055275866
 31
0.0
  0
LINE
  5
19C
  8
0
  6
CONTINUOUS
 62
     7
 10
229.2329320218
 20
50.329005427
 30
0.0
 11
229.2329320218
 21
43.4038785168
 31
0.0
  0
LINE
  5
19D
  8
0
  6
CONTINUOUS
 62
     7
 10
140.6329305377
 20
43.4038785168
 30
0.0
 11
140.6329305377
 21
50.329005427
 31
0.0
  0
LINE
  5
19E
  8
0
  6
CONTINUOUS
 62
     7
 10
141.4329306688
 20
43.4038785168
 30
0.0
 11
141.4329306688
 21
50.329005427
 31
0.0
  0
LINE
  5
19F
  8
0
  6
CONTINUOUS
 62
     7
 10
140.6329305377
 20
42.9450151392
 30
0.0
 11
140.6329305377
 21
43.4038785168
 31
0.0
  0
LINE
  5
1A0
  8
0
  6
CONTINUOUS
 62
     7
 10
141.4329306688
 20
43.4038785168
 30
0.0
 11
141.4329306688
 21
42.9450151392
 31
0.0
  0
LINE
  5
1A1
  8
0
  6
CONTINUOUS
 62
     7
 10
229.2329320218
 20
42.9450151392
 30
0.0
 11
229.2329320218
 21
43.4038785168
 31
0.0
  0
LINE
  5
1A2
  8
0
  6
CONTINUOUS
 62
     7
 10
131.3329306896
 20
70.3447197911
 30
0.0
 11
131.3329306896
 21
71.1055275866
 31
0.0
  0
LINE
  5
1A3
  8
0
  6
CONTINUOUS
 62
     7
 10
131.3329306896
 20
71.1055275866
 30
0.0
 11
133.3329306449
 21
71.1055275866
 31
0.0
  0
LINE
  5
1A4
  8
0
  6
CONTINUOUS
 62
     7
 10
230.0329276826
 20
71.1055275866
 30
0.0
 11
230.4329344537
 21
71.1055275866
 31
0.0
  0
LINE
  5
1A5
  8
0
  6
CONTINUOUS
 62
     7
 10
133.3329306449
 20
71.1055275866
 30
0.0
 11
140.6329305377
 21
71.1055275866
 31
0.0
  0
LINE
  5
1A6
  8
0
  6
CONTINUOUS
 62
     7
 10
229.2329320218
 20
42.9450151392
 30
0.0
 11
229.2329320218
 21
35.8622995087
 31
0.0
  0
LINE
  5
1A7
  8
0
  6
CONTINUOUS
 62
     7
 10
140.6329305377
 20
35.8622995087
 30
0.0
 11
140.6329305377
 21
42.9450151392
 31
0.0
  0
LINE
  5
1A8
  8
0
  6
CONTINUOUS
 62
     7
 10
141.4329306688
 20
35.8622995087
 30
0.0
 11
141.4329306688
 21
42.9450151392
 31
0.0
  0
LINE
  5
1A9
  8
0
  6
CONTINUOUS
 62
     7
 10
129.3329307343
 20
70.3447197911
 30
0.0
 11
129.3329307343
 21
71.1055275866
 31
0.0
  0
LINE
  5
1AA
  8
0
  6
CONTINUOUS
 62
     7
 10
129.3329307343
 20
71.1055275866
 30
0.0
 11
131.3329306896
 21
71.1055275866
 31
0.0
  0
LINE
  5
1AB
  8
0
  6
CONTINUOUS
 62
     7
 10
140.6329305377
 20
35.8592537113
 30
0.0
 11
140.6329305377
 21
35.8622995087
 31
0.0
  0
LINE
  5
1AC
  8
0
  6
CONTINUOUS
 62
     7
 10
141.4329306688
 20
35.8622995087
 30
0.0
 11
141.4329306688
 21
35.8592537113
 31
0.0
  0
LINE
  5
1AD
  8
0
  6
CONTINUOUS
 62
     7
 10
229.2329320218
 20
35.8592537113
 30
0.0
 11
229.2329320218
 21
35.8622995087
 31
0.0
  0
ARC
  5
1AE
  8
0
  6
CONTINUOUS
 62
     7
 10
31.7457802033
 20
63.9272682686
 30
0.0
 40
2.213147934081797
 50
180.9369201549
 51
264.4810872792
  0
ARC
  5
1AF
  8
0
  6
CONTINUOUS
 62
     7
 10
114.9207624822
 20
63.9266365935
 30
0.0
 40
2.212453854811222
 50
275.502952451
 51
359.0791464954
  0
LINE
  5
1B0
  8
0
  6
CONTINUOUS
 62
     7
 10
117.1329305973
 20
63.8910797306
 30
0.0
 11
117.1329305973
 21
63.8649252125
 31
0.0
  0
LINE
  5
1B1
  8
0
  6
CONTINUOUS
 62
     7
 10
117.1329305973
 20
59.1438156434
 30
0.0
 11
117.1329305973
 21
54.0424805947
 31
0.0
  0
ARC
  5
1B2
  8
0
  6
CONTINUOUS
 62
     7
 10
115.3313871621
 20
54.0168940589
 30
0.0
 40
1.801725123188289
 50
300.0250199792
 51
0.8136922658
  0
LINE
  5
1B3
  8
0
  6
CONTINUOUS
 62
     7
 10
29.5329281594
 20
54.0424805947
 30
0.0
 11
29.5329281594
 21
63.8910797306
 31
0.0
  0
ARC
  5
1B4
  8
0
  6
CONTINUOUS
 62
     7
 10
31.3344907098
 20
54.0169053329
 30
0.0
 40
1.801744076433345
 50
179.1866748483
 51
239.9746536325
  0
LINE
  5
1B5
  8
0
  6
CONTINUOUS
 62
     7
 10
117.1329305973
 20
68.473575718
 30
0.0
 11
29.5329281594
 21
68.473575718
 31
0.0
  0
LINE
  5
1B6
  8
0
  6
CONTINUOUS
 62
     7
 10
29.5329281594
 20
63.8910797306
 30
0.0
 11
29.5329281594
 21
68.473575718
 31
0.0
  0
LINE
  5
1B7
  8
0
  6
CONTINUOUS
 62
     7
 10
117.1329305973
 20
63.8910797306
 30
0.0
 11
117.1329305973
 21
68.473575718
 31
0.0
  0
LINE
  5
1B8
  8
0
  6
CONTINUOUS
 62
     7
 10
29.5329281594
 20
58.4855270454
 30
0.0
 11
29.4329294469
 21
58.4855270454
 31
0.0
  0
LINE
  5
1B9
  8
0
  6
CONTINUOUS
 62
     7
 10
29.4329294469
 20
68.482291221
 30
0.0
 11
29.4329294469
 21
64.1034026512
 31
0.0
  0
LINE
  5
1BA
  8
0
  6
CONTINUOUS
 62
     7
 10
117.2329307999
 20
68.482291221
 30
0.0
 11
29.4329294469
 21
68.482291221
 31
0.0
  0
LINE
  5
1BB
  8
0
  6
CONTINUOUS
 62
     7
 10
117.2329307999
 20
68.482291221
 30
0.0
 11
117.2329307999
 21
68.4704801881
 31
0.0
  0
LINE
  5
1BC
  8
0
  6
CONTINUOUS
 62
     7
 10
117.2329307999
 20
58.4855270454
 30
0.0
 11
117.1329305973
 21
58.4855270454
 31
0.0
  0
LINE
  5
1BD
  8
0
  6
CONTINUOUS
 62
     7
 10
117.2329307999
 20
71.1055275866
 30
0.0
 11
29.4329294469
 21
71.1055275866
 31
0.0
  0
LINE
  5
1BE
  8
0
  6
CONTINUOUS
 62
     7
 10
29.4329294469
 20
71.1055275866
 30
0.0
 11
29.4329294469
 21
68.482291221
 31
0.0
  0
LINE
  5
1BF
  8
0
  6
CONTINUOUS
 62
     7
 10
117.2329307999
 20
71.1055275866
 30
0.0
 11
117.2329307999
 21
68.482291221
 31
0.0
  0
LINE
  5
1C0
  8
0
  6
CONTINUOUS
 62
     7
 10
117.2329307999
 20
50.329005427
 30
0.0
 11
117.2329307999
 21
50.7368233868
 31
0.0
  0
LINE
  5
1C1
  8
0
  6
CONTINUOUS
 62
     7
 10
29.4329294469
 20
50.7368233868
 30
0.0
 11
29.4329294469
 21
50.329005427
 31
0.0
  0
LINE
  5
1C2
  8
0
  6
CONTINUOUS
 62
     7
 10
117.2329307999
 20
58.8802476295
 30
0.0
 11
117.2329307999
 21
50.7368233868
 31
0.0
  0
LINE
  5
1C3
  8
0
  6
CONTINUOUS
 62
     7
 10
118.032930931
 20
71.1055275866
 30
0.0
 11
118.032930931
 21
70.3447197911
 31
0.0
  0
LINE
  5
1C4
  8
0
  6
CONTINUOUS
 62
     7
 10
118.032930931
 20
71.1055275866
 30
0.0
 11
117.2329307999
 21
71.1055275866
 31
0.0
  0
LINE
  5
1C5
  8
0
  6
CONTINUOUS
 62
     7
 10
28.6329337861
 20
71.0706652897
 30
0.0
 11
28.6329337861
 21
71.1055275866
 31
0.0
  0
LINE
  5
1C6
  8
0
  6
CONTINUOUS
 62
     7
 10
29.4329294469
 20
50.7368233868
 30
0.0
 11
29.4329294469
 21
64.1034026512
 31
0.0
  0
LINE
  5
1C7
  8
0
  6
CONTINUOUS
 62
     7
 10
28.6329337861
 20
71.1055275866
 30
0.0
 11
29.4329294469
 21
71.1055275866
 31
0.0
  0
LINE
  5
1C8
  8
0
  6
CONTINUOUS
 62
     7
 10
29.4329294469
 20
43.4038785168
 30
0.0
 11
29.4329294469
 21
50.329005427
 31
0.0
  0
LINE
  5
1C9
  8
0
  6
CONTINUOUS
 62
     7
 10
117.2329307999
 20
50.329005427
 30
0.0
 11
117.2329307999
 21
43.4038785168
 31
0.0
  0
LINE
  5
1CA
  8
0
  6
CONTINUOUS
 62
     7
 10
117.2329307999
 20
42.9450151392
 30
0.0
 11
117.2329307999
 21
43.4038785168
 31
0.0
  0
LINE
  5
1CB
  8
0
  6
CONTINUOUS
 62
     7
 10
29.4329294469
 20
43.4038785168
 30
0.0
 11
29.4329294469
 21
42.9450151392
 31
0.0
  0
LINE
  5
1CC
  8
0
  6
CONTINUOUS
 62
     7
 10
127.3329307791
 20
71.1055275866
 30
0.0
 11
127.3329307791
 21
70.3447197911
 31
0.0
  0
LINE
  5
1CD
  8
0
  6
CONTINUOUS
 62
     7
 10
125.3329308238
 20
71.1055275866
 30
0.0
 11
127.3329307791
 21
71.1055275866
 31
0.0
  0
LINE
  5
1CE
  8
0
  6
CONTINUOUS
 62
     7
 10
118.032930931
 20
71.1055275866
 30
0.0
 11
125.3329308238
 21
71.1055275866
 31
0.0
  0
LINE
  5
1CF
  8
0
  6
CONTINUOUS
 62
     7
 10
28.232927015
 20
71.1055275866
 30
0.0
 11
28.6329337861
 21
71.1055275866
 31
0.0
  0
LINE
  5
1D0
  8
0
  6
CONTINUOUS
 62
     7
 10
29.4329294469
 20
35.8622995087
 30
0.0
 11
29.4329294469
 21
42.9450151392
 31
0.0
  0
LINE
  5
1D1
  8
0
  6
CONTINUOUS
 62
     7
 10
117.2329307999
 20
42.9450151392
 30
0.0
 11
117.2329307999
 21
35.8622995087
 31
0.0
  0
LINE
  5
1D2
  8
0
  6
CONTINUOUS
 62
     7
 10
127.3329307791
 20
71.1055275866
 30
0.0
 11
129.3329307343
 21
71.1055275866
 31
0.0
  0
LINE
  5
1D3
  8
0
  6
CONTINUOUS
 62
     7
 10
117.2329307999
 20
35.8592537113
 30
0.0
 11
117.2329307999
 21
35.8622995087
 31
0.0
  0
LINE
  5
1D4
  8
0
  6
CONTINUOUS
 62
     7
 10
29.4329294469
 20
35.8622995087
 30
0.0
 11
29.4329294469
 21
35.8592537113
 31
0.0
  0
ARC
  5
1D5
  8
0
  6
CONTINUOUS
 62
     7
 10
558.189809842
 20
249.2185679562
 30
0.0
 40
0.4000000000000909
 50
90.0
 51
180.0
  0
LINE
  5
1D6
  8
0
  6
CONTINUOUS
 62
     7
 10
581.3898099135
 20
249.6185683689
 30
0.0
 11
558.1898098361
 21
249.6185683689
 31
0.0
  0
ARC
  5
1D7
  8
0
  6
CONTINUOUS
 62
     7
 10
581.389809842
 20
249.2185679562
 30
0.0
 40
0.4000000000000057
 50
0.0
 51
90.0
  0
ARC
  5
1D8
  8
0
  6
CONTINUOUS
 62
     7
 10
457.589809842
 20
200.7095672027
 30
0.0
 40
0.4000000000000341
 50
90.0
 51
180.0
  0
LINE
  5
1D9
  8
0
  6
CONTINUOUS
 62
     7
 10
468.4898061227
 20
201.1095666371
 30
0.0
 11
457.5898093652
 21
201.1095666371
 31
0.0
  0
ARC
  5
1DA
  8
0
  6
CONTINUOUS
 62
     7
 10
468.489809842
 20
200.7095672027
 30
0.0
 40
0.4000000000000341
 50
0.0
 51
90.0
  0
ARC
  5
1DB
  8
0
  6
CONTINUOUS
 62
     7
 10
670.689809842
 20
200.7095672027
 30
0.0
 40
0.4000000000000341
 50
90.0
 51
180.0
  0
LINE
  5
1DC
  8
0
  6
CONTINUOUS
 62
     7
 10
681.5898103189
 20
201.1095666371
 30
0.0
 11
670.6898135614
 21
201.1095666371
 31
0.0
  0
ARC
  5
1DD
  8
0
  6
CONTINUOUS
 62
     7
 10
681.589809842
 20
200.7095672027
 30
0.0
 40
0.4000000000000341
 50
0.0
 51
90.0
  0
LINE
  5
1DE
  8
0
  6
CONTINUOUS
 62
     7
 10
470.7898122739
 20
134.1134333096
 30
0.0
 11
469.7898072671
 21
134.1134333096
 31
0.0
  0
LINE
  5
1DF
  8
0
  6
CONTINUOUS
 62
     7
 10
469.7898072671
 20
129.3134295426
 30
0.0
 11
470.7898122739
 21
129.3134295426
 31
0.0
  0
LINE
  5
1E0
  8
0
  6
CONTINUOUS
 62
     7
 10
557.3898097049
 20
134.1134333096
 30
0.0
 11
556.3898099135
 21
134.1134333096
 31
0.0
  0
LINE
  5
1E1
  8
0
  6
CONTINUOUS
 62
     7
 10
556.3898099135
 20
129.3134295426
 30
0.0
 11
557.3898097049
 21
129.3134295426
 31
0.0
  0
LINE
  5
1E2
  8
0
  6
CONTINUOUS
 62
     7
 10
582.6989424895
 20
127.2389435253
 30
0.0
 11
668.4806746911
 21
127.2389435253
 31
0.0
  0
LINE
  5
1E3
  8
0
  6
CONTINUOUS
 62
     7
 10
582.6898095678
 20
134.1134333096
 30
0.0
 11
581.7898099791
 21
134.1134333096
 31
0.0
  0
LINE
  5
1E4
  8
0
  6
CONTINUOUS
 62
     7
 10
581.7898099791
 20
129.3134295426
 30
0.0
 11
582.6898095678
 21
129.3134295426
 31
0.0
  0
LINE
  5
1E5
  8
0
  6
CONTINUOUS
 62
     7
 10
669.3898124169
 20
134.1134333096
 30
0.0
 11
668.4898120832
 21
134.1134333096
 31
0.0
  0
LINE
  5
1E6
  8
0
  6
CONTINUOUS
 62
     7
 10
668.4898120832
 20
129.3134295426
 30
0.0
 11
669.3898124169
 21
129.3134295426
 31
0.0
  0
ARC
  5
1E7
  8
0
  6
CONTINUOUS
 62
     7
 10
583.189809842
 20
114.1007445157
 30
0.0
 40
0.4000000000000057
 50
180.0
 51
270.0
  0
LINE
  5
1E8
  8
0
  6
CONTINUOUS
 62
     7
 10
583.1898105811
 20
113.7007438622
 30
0.0
 11
667.98981256
 21
113.7007438622
 31
0.0
  0
ARC
  5
1E9
  8
0
  6
CONTINUOUS
 62
     7
 10
667.989809842
 20
114.1007445157
 30
0.0
 40
0.4000000000000909
 50
270.0
 51
0.0
  0
LINE
  5
1EA
  8
0
  6
CONTINUOUS
 62
     7
 10
557.3821989369
 20
249.4858645878
 30
0.0
 11
469.7974187802
 21
249.4858645878
 31
0.0
  0
LINE
  5
1EB
  8
0
  6
CONTINUOUS
 62
     7
 10
469.6898085546
 20
200.2985023938
 30
0.0
 11
468.8898128938
 21
200.2985023938
 31
0.0
  0
LINE
  5
1EC
  8
0
  6
CONTINUOUS
 62
     7
 10
558.2898100387
 20
200.2985023938
 30
0.0
 11
557.9898101758
 21
200.2985023938
 31
0.0
  0
LINE
  5
1ED
  8
0
  6
CONTINUOUS
 62
     7
 10
557.7898097705
 20
200.2985023938
 30
0.0
 11
557.4898099076
 21
200.2985023938
 31
0.0
  0
LINE
  5
1EE
  8
0
  6
CONTINUOUS
 62
     7
 10
469.6898085546
 20
130.5134319744
 30
0.0
 11
469.7898072671
 21
130.5134319744
 31
0.0
  0
LINE
  5
1EF
  8
0
  6
CONTINUOUS
 62
     7
 10
557.3898097049
 20
130.5134319744
 30
0.0
 11
557.4898099076
 21
130.5134319744
 31
0.0
  0
LINE
  5
1F0
  8
0
  6
CONTINUOUS
 62
     7
 10
557.4898099076
 20
132.9134308777
 30
0.0
 11
557.3898097049
 21
132.9134308777
 31
0.0
  0
LINE
  5
1F1
  8
0
  6
CONTINUOUS
 62
     7
 10
469.7898072671
 20
132.9134308777
 30
0.0
 11
469.6898085546
 21
132.9134308777
 31
0.0
  0
LINE
  5
1F2
  8
0
  6
CONTINUOUS
 62
     7
 10
669.3822009038
 20
249.4858645878
 30
0.0
 11
581.7974207472
 21
249.4858645878
 31
0.0
  0
LINE
  5
1F3
  8
0
  6
CONTINUOUS
 62
     7
 10
581.5898095738
 20
200.2985023938
 30
0.0
 11
580.8898096453
 21
200.2985023938
 31
0.0
  0
LINE
  5
1F4
  8
0
  6
CONTINUOUS
 62
     7
 10
670.2898067903
 20
200.2985023938
 30
0.0
 11
669.4898111295
 21
200.2985023938
 31
0.0
  0
LINE
  5
1F5
  8
0
  6
CONTINUOUS
 62
     7
 10
581.6898097765
 20
130.5134319744
 30
0.0
 11
581.7898099791
 21
130.5134319744
 31
0.0
  0
LINE
  5
1F6
  8
0
  6
CONTINUOUS
 62
     7
 10
669.3898124169
 20
130.5134319744
 30
0.0
 11
669.4898111295
 21
130.5134319744
 31
0.0
  0
LINE
  5
1F7
  8
0
  6
CONTINUOUS
 62
     7
 10
669.4898111295
 20
132.9134308777
 30
0.0
 11
669.3898124169
 21
132.9134308777
 31
0.0
  0
LINE
  5
1F8
  8
0
  6
CONTINUOUS
 62
     7
 10
581.7898099791
 20
132.9134308777
 30
0.0
 11
581.6898097765
 21
132.9134308777
 31
0.0
  0
LINE
  5
1F9
  8
0
  6
CONTINUOUS
 62
     7
 10
580.6898099851
 20
114.1134285412
 30
0.0
 11
558.8898097645
 21
114.1134285412
 31
0.0
  0
ARC
  5
1FA
  8
0
  6
CONTINUOUS
 62
     7
 10
580.489809842
 20
114.3134306393
 30
0.0
 40
0.3999999999999915
 50
270.0
 51
0.0
  0
LINE
  5
1FB
  8
0
  6
CONTINUOUS
 62
     7
 10
559.0898101698
 20
113.9134311161
 30
0.0
 11
580.4898095798
 21
113.9134311161
 31
0.0
  0
ARC
  5
1FC
  8
0
  6
CONTINUOUS
 62
     7
 10
559.089809842
 20
114.3134306393
 30
0.0
 40
0.4000000000000057
 50
180.0
 51
270.0
  0
LINE
  5
1FD
  8
0
  6
CONTINUOUS
 62
     7
 10
580.8898096453
 20
114.5134293518
 30
0.0
 11
580.8898096453
 21
114.3134319268
 31
0.0
  0
LINE
  5
1FE
  8
0
  6
CONTINUOUS
 62
     7
 10
558.6898101043
 20
116.513433405
 30
0.0
 11
558.6898101043
 21
114.3134319268
 31
0.0
  0
LINE
  5
1FF
  8
0
  6
CONTINUOUS
 62
     7
 10
580.6898099851
 20
116.513433405
 30
0.0
 11
580.6898099851
 21
114.1134285412
 31
0.0
  0
LINE
  5
200
  8
0
  6
CONTINUOUS
 62
     7
 10
558.8898097645
 20
114.1134285412
 30
0.0
 11
558.8898097645
 21
116.513433405
 31
0.0
  0
LINE
  5
201
  8
0
  6
CONTINUOUS
 62
     7
 10
581.5898095738
 20
245.0291537724
 30
0.0
 11
581.6898097765
 21
245.0291537724
 31
0.0
  0
LINE
  5
202
  8
0
  6
CONTINUOUS
 62
     7
 10
581.5898095738
 20
245.0291537724
 30
0.0
 11
581.5898095738
 21
248.8146924458
 31
0.0
  0
LINE
  5
203
  8
0
  6
CONTINUOUS
 62
     7
 10
557.9898101758
 20
248.8146924458
 30
0.0
 11
581.5898095738
 21
248.8146924458
 31
0.0
  0
LINE
  5
204
  8
0
  6
CONTINUOUS
 62
     7
 10
557.9898101758
 20
248.8146924458
 30
0.0
 11
557.9898101758
 21
245.0291537724
 31
0.0
  0
LINE
  5
205
  8
0
  6
CONTINUOUS
 62
     7
 10
557.9898101758
 20
245.0291537724
 30
0.0
 11
557.7898097705
 21
245.0291537724
 31
0.0
  0
LINE
  5
206
  8
0
  6
CONTINUOUS
 62
     7
 10
557.7898097705
 20
248.6154460392
 30
0.0
 11
557.7898097705
 21
245.0291537724
 31
0.0
  0
ARC
  5
207
  8
0
  6
CONTINUOUS
 62
     7
 10
558.1890421249
 20
248.614694608
 30
0.0
 40
0.3992330615613597
 50
89.8898221581
 51
179.8921585707
  0
LINE
  5
208
  8
0
  6
CONTINUOUS
 62
     7
 10
558.1898098361
 20
249.0139269314
 30
0.0
 11
581.3898099135
 21
249.0139269314
 31
0.0
  0
ARC
  5
209
  8
0
  6
CONTINUOUS
 62
     7
 10
581.3900306519
 20
248.6134057214
 30
0.0
 40
0.400521270803013
 50
41.541773146
 51
90.0315772844
  0
LINE
  5
20A
  8
0
  6
CONTINUOUS
 62
     7
 10
557.7898097705
 20
248.6154460392
 30
0.0
 11
557.7898097705
 21
249.2185735188
 31
0.0
  0
LINE
  5
20B
  8
0
  6
CONTINUOUS
 62
     7
 10
557.9898101758
 20
200.0713490925
 30
0.0
 11
557.7898097705
 21
200.0713490925
 31
0.0
  0
LINE
  5
20C
  8
0
  6
CONTINUOUS
 62
     7
 10
557.7898097705
 20
200.0713490925
 30
0.0
 11
557.7898097705
 21
245.0291537724
 31
0.0
  0
LINE
  5
20D
  8
0
  6
CONTINUOUS
 62
     7
 10
557.9898101758
 20
200.0713490925
 30
0.0
 11
557.9898101758
 21
245.0291537724
 31
0.0
  0
LINE
  5
20E
  8
0
  6
CONTINUOUS
 62
     7
 10
581.5898095738
 20
200.0713490925
 30
0.0
 11
581.6898097765
 21
200.0713490925
 31
0.0
  0
LINE
  5
20F
  8
0
  6
CONTINUOUS
 62
     7
 10
581.5898095738
 20
200.0713490925
 30
0.0
 11
581.5898095738
 21
245.0291537724
 31
0.0
  0
LINE
  5
210
  8
0
  6
CONTINUOUS
 62
     7
 10
559.0898101698
 20
200.4025363407
 30
0.0
 11
580.4898095798
 21
200.4025363407
 31
0.0
  0
LINE
  5
211
  8
0
  6
CONTINUOUS
 62
     7
 10
557.9898101758
 20
200.4025363407
 30
0.0
 11
559.0898101698
 21
200.4025363407
 31
0.0
  0
LINE
  5
212
  8
0
  6
CONTINUOUS
 62
     7
 10
580.4898095798
 20
200.4025363407
 30
0.0
 11
581.5898095738
 21
200.4025363407
 31
0.0
  0
ARC
  5
213
  8
0
  6
CONTINUOUS
 62
     7
 10
559.0890607795
 20
199.6720983784
 30
0.0
 40
0.3992514173890246
 50
89.8924564135
 51
179.8895243154
  0
LINE
  5
214
  8
0
  6
CONTINUOUS
 62
     7
 10
558.6898101043
 20
199.6728682003
 30
0.0
 11
558.6898101043
 21
200.4025363407
 31
0.0
  0
ARC
  5
215
  8
0
  6
CONTINUOUS
 62
     7
 10
580.4905585473
 20
199.672097954
 30
0.0
 40
0.399251841061783
 50
0.1105364818
 51
90.1074827893
  0
LINE
  5
216
  8
0
  6
CONTINUOUS
 62
     7
 10
558.8898097645
 20
199.872102686
 30
0.0
 11
580.6898099851
 21
199.872102686
 31
0.0
  0
LINE
  5
217
  8
0
  6
CONTINUOUS
 62
     7
 10
559.0898101698
 20
200.0713490925
 30
0.0
 11
580.4898095798
 21
200.0713490925
 31
0.0
  0
LINE
  5
218
  8
0
  6
CONTINUOUS
 62
     7
 10
580.8898096453
 20
199.6728682003
 30
0.0
 11
580.8898096453
 21
199.2524527989
 31
0.0
  0
LINE
  5
219
  8
0
  6
CONTINUOUS
 62
     7
 10
558.6898101043
 20
199.6728682003
 30
0.0
 11
558.6898101043
 21
196.5134286366
 31
0.0
  0
LINE
  5
21A
  8
0
  6
CONTINUOUS
 62
     7
 10
580.6898099851
 20
199.872102686
 30
0.0
 11
580.6898099851
 21
196.5134286366
 31
0.0
  0
LINE
  5
21B
  8
0
  6
CONTINUOUS
 62
     7
 10
558.8898097645
 20
199.872102686
 30
0.0
 11
558.8898097645
 21
196.5134286366
 31
0.0
  0
LINE
  5
21C
  8
0
  6
CONTINUOUS
 62
     7
 10
580.8898096453
 20
200.4025363407
 30
0.0
 11
580.8898096453
 21
199.6728682003
 31
0.0
  0
LINE
  5
21D
  8
0
  6
CONTINUOUS
 62
     7
 10
558.8898097645
 20
197.0807814083
 30
0.0
 11
580.6898099851
 21
197.0807814083
 31
0.0
  0
LINE
  5
21E
  8
0
  6
CONTINUOUS
 62
     7
 10
457.5898093652
 20
113.9134311161
 30
0.0
 11
459.1898126077
 21
113.9134311161
 31
0.0
  0
ARC
  5
21F
  8
0
  6
CONTINUOUS
 62
     7
 10
457.589809842
 20
114.3134306393
 30
0.0
 40
0.3999999999999915
 50
180.0
 51
270.0
  0
LINE
  5
220
  8
0
  6
CONTINUOUS
 62
     7
 10
457.189814515
 20
198.9370607815
 30
0.0
 11
457.189814515
 21
114.3134319268
 31
0.0
  0
ARC
  5
221
  8
0
  6
CONTINUOUS
 62
     7
 10
457.5916386983
 20
198.9373339094
 30
0.0
 40
0.4018242761288323
 50
120.1507047656
 51
180.0389450712
  0
LINE
  5
222
  8
0
  6
CONTINUOUS
 62
     7
 10
457.3898119401
 20
114.1134285412
 30
0.0
 11
457.3898119401
 21
199.2847942791
 31
0.0
  0
LINE
  5
223
  8
0
  6
CONTINUOUS
 62
     7
 10
457.3898119401
 20
114.1134285412
 30
0.0
 11
459.1898126077
 21
114.1134285412
 31
0.0
  0
LINE
  5
224
  8
0
  6
CONTINUOUS
 62
     7
 10
459.1898126077
 20
114.1134285412
 30
0.0
 11
459.1898126077
 21
113.9134311161
 31
0.0
  0
ARC
  5
225
  8
0
  6
CONTINUOUS
 62
     7
 10
457.5897655594
 20
198.9374952004
 30
0.0
 40
0.4010982335034602
 50
89.9937424647
 51
119.9018237129
  0
LINE
  5
226
  8
0
  6
CONTINUOUS
 62
     7
 10
457.189814515
 20
198.9370607815
 30
0.0
 11
457.189814515
 21
200.7095717869
 31
0.0
  0
LINE
  5
227
  8
0
  6
CONTINUOUS
 62
     7
 10
457.3898119401
 20
199.2851995907
 30
0.0
 11
457.3898119401
 21
199.2847942791
 31
0.0
  0
LINE
  5
228
  8
0
  6
CONTINUOUS
 62
     7
 10
457.3898119401
 20
199.1393470249
 30
0.0
 11
468.6898154687
 21
199.1393470249
 31
0.0
  0
LINE
  5
229
  8
0
  6
CONTINUOUS
 62
     7
 10
457.5898093652
 20
199.3385934315
 30
0.0
 11
468.4898061227
 21
199.3385934315
 31
0.0
  0
ARC
  5
22A
  8
0
  6
CONTINUOUS
 62
     7
 10
468.4905616204
 20
198.9393421297
 30
0.0
 40
0.3992520166443617
 50
0.1105598651
 51
90.1084198862
  0
LINE
  5
22B
  8
0
  6
CONTINUOUS
 62
     7
 10
468.8898128938
 20
198.9401125393
 30
0.0
 11
468.8898128938
 21
198.5196971379
 31
0.0
  0
LINE
  5
22C
  8
0
  6
CONTINUOUS
 62
     7
 10
468.6898154687
 20
196.5134286366
 30
0.0
 11
468.6898154687
 21
199.1393470249
 31
0.0
  0
LINE
  5
22D
  8
0
  6
CONTINUOUS
 62
     7
 10
468.8898128938
 20
200.7095717869
 30
0.0
 11
468.8898128938
 21
198.9401125393
 31
0.0
  0
ARC
  5
22E
  8
0
  6
CONTINUOUS
 62
     7
 10
468.489809842
 20
114.3134306393
 30
0.0
 40
0.4000000000000341
 50
270.0
 51
0.0
  0
LINE
  5
22F
  8
0
  6
CONTINUOUS
 62
     7
 10
468.6898154687
 20
114.1134285412
 30
0.0
 11
459.1898126077
 21
114.1134285412
 31
0.0
  0
LINE
  5
230
  8
0
  6
CONTINUOUS
 62
     7
 10
459.1898126077
 20
113.9134311161
 30
0.0
 11
468.4898061227
 21
113.9134311161
 31
0.0
  0
LINE
  5
231
  8
0
  6
CONTINUOUS
 62
     7
 10
468.8898128938
 20
114.5134293518
 30
0.0
 11
468.8898128938
 21
114.3134319268
 31
0.0
  0
LINE
  5
232
  8
0
  6
CONTINUOUS
 62
     7
 10
468.6898154687
 20
116.513433405
 30
0.0
 11
468.6898154687
 21
114.1134285412
 31
0.0
  0
LINE
  5
233
  8
0
  6
CONTINUOUS
 62
     7
 10
457.3898119401
 20
197.0807814083
 30
0.0
 11
468.6898154687
 21
197.0807814083
 31
0.0
  0
LINE
  5
234
  8
0
  6
CONTINUOUS
 62
     7
 10
679.9898070764
 20
114.1134285412
 30
0.0
 11
681.7898077439
 21
114.1134285412
 31
0.0
  0
LINE
  5
235
  8
0
  6
CONTINUOUS
 62
     7
 10
681.7898077439
 20
199.2847942791
 30
0.0
 11
681.7898077439
 21
114.1134285412
 31
0.0
  0
ARC
  5
236
  8
0
  6
CONTINUOUS
 62
     7
 10
681.5880436889
 20
198.9373699728
 30
0.0
 40
0.40176159907998
 50
359.9559057895
 51
59.8544443737
  0
LINE
  5
237
  8
0
  6
CONTINUOUS
 62
     7
 10
681.989805169
 20
198.9370607815
 30
0.0
 11
681.989805169
 21
114.3134319268
 31
0.0
  0
ARC
  5
238
  8
0
  6
CONTINUOUS
 62
     7
 10
681.589809842
 20
114.3134306393
 30
0.0
 40
0.4000000000000057
 50
270.0
 51
360.0
  0
LINE
  5
239
  8
0
  6
CONTINUOUS
 62
     7
 10
679.9898070764
 20
113.9134311161
 30
0.0
 11
681.5898103189
 21
113.9134311161
 31
0.0
  0
LINE
  5
23A
  8
0
  6
CONTINUOUS
 62
     7
 10
679.9898070764
 20
114.1134285412
 30
0.0
 11
679.9898070764
 21
113.9134311161
 31
0.0
  0
ARC
  5
23B
  8
0
  6
CONTINUOUS
 62
     7
 10
681.5898541246
 20
198.9374952004
 30
0.0
 40
0.4010982335026853
 50
60.0981762871
 51
90.0062575353
  0
LINE
  5
23C
  8
0
  6
CONTINUOUS
 62
     7
 10
681.989805169
 20
200.7095717869
 30
0.0
 11
681.989805169
 21
198.9370607815
 31
0.0
  0
LINE
  5
23D
  8
0
  6
CONTINUOUS
 62
     7
 10
681.7898077439
 20
199.2847942791
 30
0.0
 11
681.7898077439
 21
199.2851995907
 31
0.0
  0
LINE
  5
23E
  8
0
  6
CONTINUOUS
 62
     7
 10
670.4898042153
 20
199.1393470249
 30
0.0
 11
681.7898077439
 21
199.1393470249
 31
0.0
  0
ARC
  5
23F
  8
0
  6
CONTINUOUS
 62
     7
 10
670.6890580636
 20
198.9393421297
 30
0.0
 40
0.3992520166444757
 50
89.8915801138
 51
179.8894401349
  0
LINE
  5
240
  8
0
  6
CONTINUOUS
 62
     7
 10
670.6898135614
 20
199.3385934315
 30
0.0
 11
681.5898103189
 21
199.3385934315
 31
0.0
  0
LINE
  5
241
  8
0
  6
CONTINUOUS
 62
     7
 10
670.2898067903
 20
198.9401125393
 30
0.0
 11
670.2898067903
 21
198.5196971379
 31
0.0
  0
LINE
  5
242
  8
0
  6
CONTINUOUS
 62
     7
 10
670.4898042153
 20
199.1393470249
 30
0.0
 11
670.4898042153
 21
196.5134286366
 31
0.0
  0
LINE
  5
243
  8
0
  6
CONTINUOUS
 62
     7
 10
670.2898067903
 20
198.9401125393
 30
0.0
 11
670.2898067903
 21
200.7095717869
 31
0.0
  0
ARC
  5
244
  8
0
  6
CONTINUOUS
 62
     7
 10
670.689809842
 20
114.3134306393
 30
0.0
 40
0.4000000000000057
 50
180.0
 51
270.0
  0
LINE
  5
245
  8
0
  6
CONTINUOUS
 62
     7
 10
679.9898070764
 20
114.1134285412
 30
0.0
 11
670.4898042153
 21
114.1134285412
 31
0.0
  0
LINE
  5
246
  8
0
  6
CONTINUOUS
 62
     7
 10
670.6898135614
 20
113.9134311161
 30
0.0
 11
679.9898070764
 21
113.9134311161
 31
0.0
  0
LINE
  5
247
  8
0
  6
CONTINUOUS
 62
     7
 10
670.2898067903
 20
114.5134293518
 30
0.0
 11
670.2898067903
 21
114.3134319268
 31
0.0
  0
LINE
  5
248
  8
0
  6
CONTINUOUS
 62
     7
 10
670.4898042153
 20
114.1134285412
 30
0.0
 11
670.4898042153
 21
116.513433405
 31
0.0
  0
LINE
  5
249
  8
0
  6
CONTINUOUS
 62
     7
 10
670.4898042153
 20
197.0807814083
 30
0.0
 11
681.7898077439
 21
197.0807814083
 31
0.0
  0
ARC
  5
24A
  8
0
  6
CONTINUOUS
 62
     7
 10
471.189809842
 20
127.7134306393
 30
0.0
 40
0.3999999999999915
 50
180.0
 51
270.0
  0
LINE
  5
24B
  8
0
  6
CONTINUOUS
 62
     7
 10
470.7898122739
 20
127.7134322605
 30
0.0
 11
470.7898122739
 21
134.9134289704
 31
0.0
  0
LINE
  5
24C
  8
0
  6
CONTINUOUS
 62
     7
 10
555.9898091029
 20
127.3134314499
 30
0.0
 11
471.189807124
 21
127.3134314499
 31
0.0
  0
LINE
  5
24D
  8
0
  6
CONTINUOUS
 62
     7
 10
556.3898099135
 20
134.9134289704
 30
0.0
 11
556.3898099135
 21
127.7134322605
 31
0.0
  0
ARC
  5
24E
  8
0
  6
CONTINUOUS
 62
     7
 10
555.989809842
 20
127.7134306393
 30
0.0
 40
0.4000000000000909
 50
270.0
 51
0.0
  0
LINE
  5
24F
  8
0
  6
CONTINUOUS
 62
     7
 10
469.7898072671
 20
131.7134284458
 30
0.0
 11
469.7898072671
 21
134.1134333096
 31
0.0
  0
LINE
  5
250
  8
0
  6
CONTINUOUS
 62
     7
 10
469.7898072671
 20
129.3134295426
 30
0.0
 11
469.7898072671
 21
131.7134284458
 31
0.0
  0
LINE
  5
251
  8
0
  6
CONTINUOUS
 62
     7
 10
557.3898097049
 20
131.7134284458
 30
0.0
 11
557.3898097049
 21
134.1134333096
 31
0.0
  0
LINE
  5
252
  8
0
  6
CONTINUOUS
 62
     7
 10
557.3898097049
 20
129.3134295426
 30
0.0
 11
557.3898097049
 21
131.7134284458
 31
0.0
  0
LINE
  5
253
  8
0
  6
CONTINUOUS
 62
     7
 10
582.6898095678
 20
127.2480749569
 30
0.0
 11
582.6898095678
 21
134.9134289704
 31
0.0
  0
POLYLINE
  5
254
  8
0
  6
CONTINUOUS
 62
     7
 66
     1
 10
0.0
 20
0.0
 30
0.0
  0
VERTEX
  5
323
  8
0
  6
CONTINUOUS
 62
     7
 10
582.6898095678
 20
127.2480749569
 30
0.0
  0
VERTEX
  5
324
  8
0
  6
CONTINUOUS
 62
     7
 10
582.7193570804
 20
127.244790741
 30
0.0
  0
VERTEX
  5
325
  8
0
  6
CONTINUOUS
 62
     7
 10
582.8072739314
 20
127.3004555188
 30
0.0
  0
VERTEX
  5
326
  8
0
  6
CONTINUOUS
 62
     7
 10
582.9513934921
 20
127.4137043438
 30
0.0
  0
VERTEX
  5
327
  8
0
  6
CONTINUOUS
 62
     7
 10
583.1481692862
 20
127.5817417584
 30
0.0
  0
VERTEX
  5
328
  8
0
  6
CONTINUOUS
 62
     7
 10
583.3927539658
 20
127.8004371605
 30
0.0
  0
VERTEX
  5
329
  8
0
  6
CONTINUOUS
 62
     7
 10
583.6791259717
 20
128.0644022904
 30
0.0
  0
VERTEX
  5
32A
  8
0
  6
CONTINUOUS
 62
     7
 10
584.0002325844
 20
128.3671342812
 30
0.0
  0
VERTEX
  5
32B
  8
0
  6
CONTINUOUS
 62
     7
 10
584.3481687378
 20
128.7011885128
 30
0.0
  0
VERTEX
  5
32C
  8
0
  6
CONTINUOUS
 62
     7
 10
584.7143677544
 20
129.0583335839
 30
0.0
  0
VERTEX
  5
32D
  8
0
  6
CONTINUOUS
 62
     7
 10
585.0898099612
 20
129.4297718487
 30
0.0
  0
SEQEND
  5
33A
  8
0
  6
CONTINUOUS
 62
     7
  0
LINE
  5
255
  8
0
  6
CONTINUOUS
 62
     7
 10
668.4898120832
 20
134.9134289704
 30
0.0
 11
668.4898120832
 21
127.2480749569
 31
0.0
  0
POLYLINE
  5
256
  8
0
  6
CONTINUOUS
 62
     7
 66
     1
 10
0.0
 20
0.0
 30
0.0
  0
VERTEX
  5
32E
  8
0
  6
CONTINUOUS
 62
     7
 10
668.4898120832
 20
127.2480749569
 30
0.0
  0
VERTEX
  5
32F
  8
0
  6
CONTINUOUS
 62
     7
 10
668.4602601003
 20
127.244790741
 30
0.0
  0
VERTEX
  5
330
  8
0
  6
CONTINUOUS
 62
     7
 10
668.3723432492
 20
127.3004555188
 30
0.0
  0
VERTEX
  5
331
  8
0
  6
CONTINUOUS
 62
     7
 10
668.2282251786
 20
127.4137043438
 30
0.0
  0
VERTEX
  5
332
  8
0
  6
CONTINUOUS
 62
     7
 10
668.0314523648
 20
127.5817417584
 30
0.0
  0
VERTEX
  5
333
  8
0
  6
CONTINUOUS
 62
     7
 10
667.786864705
 20
127.8004371605
 30
0.0
  0
VERTEX
  5
334
  8
0
  6
CONTINUOUS
 62
     7
 10
667.5004941892
 20
128.0644022904
 30
0.0
  0
VERTEX
  5
335
  8
0
  6
CONTINUOUS
 62
     7
 10
667.1793860864
 20
128.3671342812
 30
0.0
  0
VERTEX
  5
336
  8
0
  6
CONTINUOUS
 62
     7
 10
666.831449933
 20
128.7011885128
 30
0.0
  0
VERTEX
  5
337
  8
0
  6
CONTINUOUS
 62
     7
 10
666.4652509164
 20
129.0583335839
 30
0.0
  0
VERTEX
  5
338
  8
0
  6
CONTINUOUS
 62
     7
 10
666.0898072194
 20
129.4297718487
 30
0.0
  0
SEQEND
  5
339
  8
0
  6
CONTINUOUS
 62
     7
  0
LINE
  5
257
  8
0
  6
CONTINUOUS
 62
     7
 10
582.7898097705
 20
114.1007446728
 30
0.0
 11
582.7898097705
 21
127.2389435253
 31
0.0
  0
LINE
  5
258
  8
0
  6
CONTINUOUS
 62
     7
 10
668.3898074102
 20
127.2389435253
 30
0.0
 11
668.3898074102
 21
114.1007446728
 31
0.0
  0
LINE
  5
259
  8
0
  6
CONTINUOUS
 62
     7
 10
581.7898099791
 20
129.3134295426
 30
0.0
 11
581.7898099791
 21
134.1134333096
 31
0.0
  0
LINE
  5
25A
  8
0
  6
CONTINUOUS
 62
     7
 10
669.3898124169
 20
129.3134295426
 30
0.0
 11
669.3898124169
 21
134.1134333096
 31
0.0
  0
CIRCLE
  5
25B
  8
0
  6
CONTINUOUS
 62
     7
 10
563.589809842
 20
191.9134306393
 30
0.0
 40
1.100000000000023
  0
CIRCLE
  5
25C
  8
0
  6
CONTINUOUS
 62
     7
 10
563.589809842
 20
119.9134306393
 30
0.0
 40
1.100000000000023
  0
CIRCLE
  5
25D
  8
0
  6
CONTINUOUS
 62
     7
 10
463.589809842
 20
191.9134306393
 30
0.0
 40
1.10000000000008
  0
CIRCLE
  5
25E
  8
0
  6
CONTINUOUS
 62
     7
 10
463.589809842
 20
119.9134306393
 30
0.0
 40
1.10000000000008
  0
LINE
  5
25F
  8
0
  6
CONTINUOUS
 62
     7
 10
569.589809842
 20
190.5134343586
 30
0.0
 11
567.5898098867
 21
190.5134343586
 31
0.0
  0
LINE
  5
260
  8
0
  6
CONTINUOUS
 62
     7
 10
569.589809842
 20
188.513436266
 30
0.0
 11
569.589809842
 21
190.5134343586
 31
0.0
  0
LINE
  5
261
  8
0
  6
CONTINUOUS
 62
     7
 10
567.5898098867
 20
188.513436266
 30
0.0
 11
569.589809842
 21
188.513436266
 31
0.0
  0
LINE
  5
262
  8
0
  6
CONTINUOUS
 62
     7
 10
567.5898098867
 20
125.3134333573
 30
0.0
 11
567.5898098867
 21
188.513436266
 31
0.0
  0
LINE
  5
263
  8
0
  6
CONTINUOUS
 62
     7
 10
569.589809842
 20
125.3134333573
 30
0.0
 11
567.5898098867
 21
125.3134333573
 31
0.0
  0
LINE
  5
264
  8
0
  6
CONTINUOUS
 62
     7
 10
569.589809842
 20
123.3134293042
 30
0.0
 11
569.589809842
 21
125.3134333573
 31
0.0
  0
LINE
  5
265
  8
0
  6
CONTINUOUS
 62
     7
 10
567.5898098867
 20
123.3134293042
 30
0.0
 11
569.589809842
 21
123.3134293042
 31
0.0
  0
LINE
  5
266
  8
0
  6
CONTINUOUS
 62
     7
 10
567.5898098867
 20
118.5134314976
 30
0.0
 11
567.5898098867
 21
123.3134293042
 31
0.0
  0
ARC
  5
267
  8
0
  6
CONTINUOUS
 62
     7
 10
565.589809842
 20
118.5134306393
 30
0.0
 40
2.000000000000014
 50
270.0
 51
0.0
  0
LINE
  5
268
  8
0
  6
CONTINUOUS
 62
     7
 10
558.2898100387
 20
116.513433405
 30
0.0
 11
565.5898099314
 21
116.513433405
 31
0.0
  0
LINE
  5
269
  8
0
  6
CONTINUOUS
 62
     7
 10
558.2898100387
 20
116.513433405
 30
0.0
 11
558.2898100387
 21
114.5134293518
 31
0.0
  0
LINE
  5
26A
  8
0
  6
CONTINUOUS
 62
     7
 10
558.2898100387
 20
114.5134293518
 30
0.0
 11
557.4898099076
 21
114.5134293518
 31
0.0
  0
LINE
  5
26B
  8
0
  6
CONTINUOUS
 62
     7
 10
557.4898099076
 20
187.3709821186
 30
0.0
 11
557.4898099076
 21
114.5134293518
 31
0.0
  0
LINE
  5
26C
  8
0
  6
CONTINUOUS
 62
     7
 10
469.6898085546
 20
187.3709821186
 30
0.0
 11
557.4898099076
 21
187.3709821186
 31
0.0
  0
LINE
  5
26D
  8
0
  6
CONTINUOUS
 62
     7
 10
469.6898085546
 20
114.5134293518
 30
0.0
 11
469.6898085546
 21
187.3709821186
 31
0.0
  0
LINE
  5
26E
  8
0
  6
CONTINUOUS
 62
     7
 10
468.8898128938
 20
114.5134293518
 30
0.0
 11
469.6898085546
 21
114.5134293518
 31
0.0
  0
LINE
  5
26F
  8
0
  6
CONTINUOUS
 62
     7
 10
468.8898128938
 20
114.5134293518
 30
0.0
 11
468.8898128938
 21
116.513433405
 31
0.0
  0
LINE
  5
270
  8
0
  6
CONTINUOUS
 62
     7
 10
461.5898055505
 20
116.513433405
 30
0.0
 11
468.8898128938
 21
116.513433405
 31
0.0
  0
ARC
  5
271
  8
0
  6
CONTINUOUS
 62
     7
 10
461.589809842
 20
118.5134306393
 30
0.0
 40
2.0
 50
180.0
 51
270.0
  0
LINE
  5
272
  8
0
  6
CONTINUOUS
 62
     7
 10
459.5898074578
 20
123.3134293042
 30
0.0
 11
459.5898074578
 21
118.5134314976
 31
0.0
  0
LINE
  5
273
  8
0
  6
CONTINUOUS
 62
     7
 10
457.5898093652
 20
123.3134293042
 30
0.0
 11
459.5898074578
 21
123.3134293042
 31
0.0
  0
LINE
  5
274
  8
0
  6
CONTINUOUS
 62
     7
 10
457.5898093652
 20
125.3134333573
 30
0.0
 11
457.5898093652
 21
123.3134293042
 31
0.0
  0
LINE
  5
275
  8
0
  6
CONTINUOUS
 62
     7
 10
459.5898074578
 20
125.3134333573
 30
0.0
 11
457.5898093652
 21
125.3134333573
 31
0.0
  0
LINE
  5
276
  8
0
  6
CONTINUOUS
 62
     7
 10
459.5898074578
 20
188.513436266
 30
0.0
 11
459.5898074578
 21
125.3134333573
 31
0.0
  0
LINE
  5
277
  8
0
  6
CONTINUOUS
 62
     7
 10
457.5898093652
 20
190.5134343586
 30
0.0
 11
457.5898093652
 21
188.513436266
 31
0.0
  0
LINE
  5
278
  8
0
  6
CONTINUOUS
 62
     7
 10
459.5898074578
 20
194.5134305439
 30
0.0
 11
459.5898074578
 21
190.5134343586
 31
0.0
  0
ARC
  5
279
  8
0
  6
CONTINUOUS
 62
     7
 10
461.589809842
 20
194.5134306393
 30
0.0
 40
2.0
 50
90.0
 51
180.0
  0
LINE
  5
27A
  8
0
  6
CONTINUOUS
 62
     7
 10
468.8898128938
 20
196.5134286366
 30
0.0
 11
461.5898055505
 21
196.5134286366
 31
0.0
  0
LINE
  5
27B
  8
0
  6
CONTINUOUS
 62
     7
 10
468.8898128938
 20
196.5134286366
 30
0.0
 11
468.8898128938
 21
198.5134267292
 31
0.0
  0
LINE
  5
27C
  8
0
  6
CONTINUOUS
 62
     7
 10
468.8898128938
 20
198.5134267292
 30
0.0
 11
469.6898085546
 21
198.5134267292
 31
0.0
  0
LINE
  5
27D
  8
0
  6
CONTINUOUS
 62
     7
 10
469.6898085546
 20
198.5134267292
 30
0.0
 11
469.6898085546
 21
248.9474558316
 31
0.0
  0
LINE
  5
27E
  8
0
  6
CONTINUOUS
 62
     7
 10
469.6898085546
 20
248.9474558316
 30
0.0
 11
557.4898099076
 21
248.9474558316
 31
0.0
  0
LINE
  5
27F
  8
0
  6
CONTINUOUS
 62
     7
 10
557.4898099076
 20
198.5134267292
 30
0.0
 11
557.4898099076
 21
248.9474558316
 31
0.0
  0
LINE
  5
280
  8
0
  6
CONTINUOUS
 62
     7
 10
558.2898100387
 20
198.5134267292
 30
0.0
 11
557.4898099076
 21
198.5134267292
 31
0.0
  0
LINE
  5
281
  8
0
  6
CONTINUOUS
 62
     7
 10
558.2898100387
 20
198.5134267292
 30
0.0
 11
558.2898100387
 21
196.5134286366
 31
0.0
  0
LINE
  5
282
  8
0
  6
CONTINUOUS
 62
     7
 10
565.5898099314
 20
196.5134286366
 30
0.0
 11
558.2898100387
 21
196.5134286366
 31
0.0
  0
ARC
  5
283
  8
0
  6
CONTINUOUS
 62
     7
 10
565.589809842
 20
194.5134306393
 30
0.0
 40
2.0
 50
0.0
 51
90.0
  0
LINE
  5
284
  8
0
  6
CONTINUOUS
 62
     7
 10
567.5898098867
 20
190.5134343586
 30
0.0
 11
567.5898098867
 21
194.5134305439
 31
0.0
  0
LINE
  5
285
  8
0
  6
CONTINUOUS
 62
     7
 10
459.5898074578
 20
190.5134343586
 30
0.0
 11
457.5898093652
 21
190.5134343586
 31
0.0
  0
LINE
  5
286
  8
0
  6
CONTINUOUS
 62
     7
 10
457.5898093652
 20
188.513436266
 30
0.0
 11
459.5898074578
 21
188.513436266
 31
0.0
  0
LINE
  5
287
  8
0
  6
CONTINUOUS
 62
     7
 10
469.6898085546
 20
134.9134289704
 30
0.0
 11
557.4898099076
 21
134.9134289704
 31
0.0
  0
LINE
  5
288
  8
0
  6
CONTINUOUS
 62
     7
 10
468.8898128938
 20
198.5134267292
 30
0.0
 11
468.8898128938
 21
198.5196971379
 31
0.0
  0
LINE
  5
289
  8
0
  6
CONTINUOUS
 62
     7
 10
469.6898085546
 20
249.1769575558
 30
0.0
 11
557.4898099076
 21
249.1769575558
 31
0.0
  0
LINE
  5
28A
  8
0
  6
CONTINUOUS
 62
     7
 10
557.4898099076
 20
248.9474558316
 30
0.0
 11
557.4898099076
 21
249.1769575558
 31
0.0
  0
LINE
  5
28B
  8
0
  6
CONTINUOUS
 62
     7
 10
469.6898085546
 20
248.9474558316
 30
0.0
 11
469.6898085546
 21
249.1769575558
 31
0.0
  0
LINE
  5
28C
  8
0
  6
CONTINUOUS
 62
     7
 10
558.2898100387
 20
200.2954625569
 30
0.0
 11
558.2898100387
 21
198.5134267292
 31
0.0
  0
LINE
  5
28D
  8
0
  6
CONTINUOUS
 62
     7
 10
469.7898072671
 20
249.4782590351
 30
0.0
 11
469.7898072671
 21
249.1769575558
 31
0.0
  0
LINE
  5
28E
  8
0
  6
CONTINUOUS
 62
     7
 10
557.3898097049
 20
249.4782590351
 30
0.0
 11
557.3898097049
 21
249.1769575558
 31
0.0
  0
LINE
  5
28F
  8
0
  6
CONTINUOUS
 62
     7
 10
469.7974187802
 20
249.4858645878
 30
0.0
 11
469.7898072671
 21
249.4782590351
 31
0.0
  0
LINE
  5
290
  8
0
  6
CONTINUOUS
 62
     7
 10
557.3898097049
 20
249.4782590351
 30
0.0
 11
557.3821989369
 21
249.4858645878
 31
0.0
  0
LINE
  5
291
  8
0
  6
CONTINUOUS
 62
     7
 10
558.2898100387
 20
200.2985023938
 30
0.0
 11
558.2898100387
 21
200.2954625569
 31
0.0
  0
CIRCLE
  5
292
  8
0
  6
CONTINUOUS
 62
     7
 10
675.589809842
 20
191.9134306393
 30
0.0
 40
1.099999999999909
  0
CIRCLE
  5
293
  8
0
  6
CONTINUOUS
 62
     7
 10
675.589809842
 20
119.9134306393
 30
0.0
 40
1.099999999999909
  0
CIRCLE
  5
294
  8
0
  6
CONTINUOUS
 62
     7
 10
575.589809842
 20
191.9134306393
 30
0.0
 40
1.099999999999909
  0
CIRCLE
  5
295
  8
0
  6
CONTINUOUS
 62
     7
 10
575.589809842
 20
119.9134306393
 30
0.0
 40
1.099999999999909
  0
LINE
  5
296
  8
0
  6
CONTINUOUS
 62
     7
 10
681.5898103189
 20
190.5134343586
 30
0.0
 11
679.5898122262
 21
190.5134343586
 31
0.0
  0
LINE
  5
297
  8
0
  6
CONTINUOUS
 62
     7
 10
681.5898103189
 20
188.513436266
 30
0.0
 11
681.5898103189
 21
190.5134343586
 31
0.0
  0
LINE
  5
298
  8
0
  6
CONTINUOUS
 62
     7
 10
679.5898122262
 20
188.513436266
 30
0.0
 11
681.5898103189
 21
188.513436266
 31
0.0
  0
LINE
  5
299
  8
0
  6
CONTINUOUS
 62
     7
 10
679.5898122262
 20
125.3134333573
 30
0.0
 11
679.5898122262
 21
188.513436266
 31
0.0
  0
LINE
  5
29A
  8
0
  6
CONTINUOUS
 62
     7
 10
681.5898103189
 20
125.3134333573
 30
0.0
 11
679.5898122262
 21
125.3134333573
 31
0.0
  0
LINE
  5
29B
  8
0
  6
CONTINUOUS
 62
     7
 10
681.5898103189
 20
123.3134293042
 30
0.0
 11
681.5898103189
 21
125.3134333573
 31
0.0
  0
LINE
  5
29C
  8
0
  6
CONTINUOUS
 62
     7
 10
679.5898122262
 20
123.3134293042
 30
0.0
 11
681.5898103189
 21
123.3134293042
 31
0.0
  0
LINE
  5
29D
  8
0
  6
CONTINUOUS
 62
     7
 10
679.5898122262
 20
118.5134314976
 30
0.0
 11
679.5898122262
 21
123.3134293042
 31
0.0
  0
ARC
  5
29E
  8
0
  6
CONTINUOUS
 62
     7
 10
677.589809842
 20
118.5134306393
 30
0.0
 40
2.000000000000014
 50
270.0
 51
0.0
  0
LINE
  5
29F
  8
0
  6
CONTINUOUS
 62
     7
 10
670.2898067903
 20
116.513433405
 30
0.0
 11
677.5898141336
 21
116.513433405
 31
0.0
  0
LINE
  5
2A0
  8
0
  6
CONTINUOUS
 62
     7
 10
670.2898067903
 20
116.513433405
 30
0.0
 11
670.2898067903
 21
114.5134293518
 31
0.0
  0
LINE
  5
2A1
  8
0
  6
CONTINUOUS
 62
     7
 10
670.2898067903
 20
114.5134293518
 30
0.0
 11
669.4898111295
 21
114.5134293518
 31
0.0
  0
LINE
  5
2A2
  8
0
  6
CONTINUOUS
 62
     7
 10
669.4898111295
 20
187.3709821186
 30
0.0
 11
669.4898111295
 21
114.5134293518
 31
0.0
  0
LINE
  5
2A3
  8
0
  6
CONTINUOUS
 62
     7
 10
581.6898097765
 20
187.3709821186
 30
0.0
 11
669.4898111295
 21
187.3709821186
 31
0.0
  0
LINE
  5
2A4
  8
0
  6
CONTINUOUS
 62
     7
 10
581.6898097765
 20
114.5134293518
 30
0.0
 11
581.6898097765
 21
187.3709821186
 31
0.0
  0
LINE
  5
2A5
  8
0
  6
CONTINUOUS
 62
     7
 10
580.8898096453
 20
114.5134293518
 30
0.0
 11
581.6898097765
 21
114.5134293518
 31
0.0
  0
LINE
  5
2A6
  8
0
  6
CONTINUOUS
 62
     7
 10
580.8898096453
 20
114.5134293518
 30
0.0
 11
580.8898096453
 21
116.513433405
 31
0.0
  0
LINE
  5
2A7
  8
0
  6
CONTINUOUS
 62
     7
 10
573.5898097526
 20
116.513433405
 30
0.0
 11
580.8898096453
 21
116.513433405
 31
0.0
  0
ARC
  5
2A8
  8
0
  6
CONTINUOUS
 62
     7
 10
573.589809842
 20
118.5134306393
 30
0.0
 40
2.0
 50
180.0
 51
270.0
  0
LINE
  5
2A9
  8
0
  6
CONTINUOUS
 62
     7
 10
571.5898097973
 20
123.3134293042
 30
0.0
 11
571.5898097973
 21
118.5134314976
 31
0.0
  0
LINE
  5
2AA
  8
0
  6
CONTINUOUS
 62
     7
 10
569.589809842
 20
123.3134293042
 30
0.0
 11
571.5898097973
 21
123.3134293042
 31
0.0
  0
LINE
  5
2AB
  8
0
  6
CONTINUOUS
 62
     7
 10
571.5898097973
 20
125.3134333573
 30
0.0
 11
569.589809842
 21
125.3134333573
 31
0.0
  0
LINE
  5
2AC
  8
0
  6
CONTINUOUS
 62
     7
 10
571.5898097973
 20
188.513436266
 30
0.0
 11
571.5898097973
 21
125.3134333573
 31
0.0
  0
LINE
  5
2AD
  8
0
  6
CONTINUOUS
 62
     7
 10
571.5898097973
 20
194.5134305439
 30
0.0
 11
571.5898097973
 21
190.5134343586
 31
0.0
  0
ARC
  5
2AE
  8
0
  6
CONTINUOUS
 62
     7
 10
573.589809842
 20
194.5134306393
 30
0.0
 40
2.0
 50
90.0
 51
180.0
  0
LINE
  5
2AF
  8
0
  6
CONTINUOUS
 62
     7
 10
580.8898096453
 20
196.5134286366
 30
0.0
 11
573.5898097526
 21
196.5134286366
 31
0.0
  0
LINE
  5
2B0
  8
0
  6
CONTINUOUS
 62
     7
 10
580.8898096453
 20
196.5134286366
 30
0.0
 11
580.8898096453
 21
198.5134267292
 31
0.0
  0
LINE
  5
2B1
  8
0
  6
CONTINUOUS
 62
     7
 10
580.8898096453
 20
198.5134267292
 30
0.0
 11
581.6898097765
 21
198.5134267292
 31
0.0
  0
LINE
  5
2B2
  8
0
  6
CONTINUOUS
 62
     7
 10
581.6898097765
 20
198.5134267292
 30
0.0
 11
581.6898097765
 21
248.9474558316
 31
0.0
  0
LINE
  5
2B3
  8
0
  6
CONTINUOUS
 62
     7
 10
581.6898097765
 20
248.9474558316
 30
0.0
 11
669.4898111295
 21
248.9474558316
 31
0.0
  0
LINE
  5
2B4
  8
0
  6
CONTINUOUS
 62
     7
 10
669.4898111295
 20
198.5134267292
 30
0.0
 11
669.4898111295
 21
248.9474558316
 31
0.0
  0
LINE
  5
2B5
  8
0
  6
CONTINUOUS
 62
     7
 10
670.2898067903
 20
198.5134267292
 30
0.0
 11
669.4898111295
 21
198.5134267292
 31
0.0
  0
LINE
  5
2B6
  8
0
  6
CONTINUOUS
 62
     7
 10
670.2898067903
 20
198.5134267292
 30
0.0
 11
670.2898067903
 21
196.5134286366
 31
0.0
  0
LINE
  5
2B7
  8
0
  6
CONTINUOUS
 62
     7
 10
677.5898141336
 20
196.5134286366
 30
0.0
 11
670.2898067903
 21
196.5134286366
 31
0.0
  0
ARC
  5
2B8
  8
0
  6
CONTINUOUS
 62
     7
 10
677.589809842
 20
194.5134306393
 30
0.0
 40
2.0
 50
0.0
 51
90.0
  0
LINE
  5
2B9
  8
0
  6
CONTINUOUS
 62
     7
 10
679.5898122262
 20
190.5134343586
 30
0.0
 11
679.5898122262
 21
194.5134305439
 31
0.0
  0
LINE
  5
2BA
  8
0
  6
CONTINUOUS
 62
     7
 10
569.589809842
 20
188.513436266
 30
0.0
 11
571.5898097973
 21
188.513436266
 31
0.0
  0
LINE
  5
2BB
  8
0
  6
CONTINUOUS
 62
     7
 10
571.5898097973
 20
190.5134343586
 30
0.0
 11
569.589809842
 21
190.5134343586
 31
0.0
  0
LINE
  5
2BC
  8
0
  6
CONTINUOUS
 62
     7
 10
581.6898097765
 20
134.9134289704
 30
0.0
 11
669.4898111295
 21
134.9134289704
 31
0.0
  0
LINE
  5
2BD
  8
0
  6
CONTINUOUS
 62
     7
 10
580.8898096453
 20
198.5134267292
 30
0.0
 11
580.8898096453
 21
199.2524527989
 31
0.0
  0
LINE
  5
2BE
  8
0
  6
CONTINUOUS
 62
     7
 10
581.6898097765
 20
249.1769575558
 30
0.0
 11
669.4898111295
 21
249.1769575558
 31
0.0
  0
LINE
  5
2BF
  8
0
  6
CONTINUOUS
 62
     7
 10
669.4898111295
 20
248.9474558316
 30
0.0
 11
669.4898111295
 21
249.1769575558
 31
0.0
  0
LINE
  5
2C0
  8
0
  6
CONTINUOUS
 62
     7
 10
581.6898097765
 20
248.9474558316
 30
0.0
 11
581.6898097765
 21
249.1769575558
 31
0.0
  0
LINE
  5
2C1
  8
0
  6
CONTINUOUS
 62
     7
 10
670.2898067903
 20
198.5196971379
 30
0.0
 11
670.2898067903
 21
198.5134267292
 31
0.0
  0
LINE
  5
2C2
  8
0
  6
CONTINUOUS
 62
     7
 10
581.7898099791
 20
249.4782590351
 30
0.0
 11
581.7898099791
 21
249.1769575558
 31
0.0
  0
LINE
  5
2C3
  8
0
  6
CONTINUOUS
 62
     7
 10
669.3898124169
 20
249.4782590351
 30
0.0
 11
669.3898124169
 21
249.1769575558
 31
0.0
  0
LINE
  5
2C4
  8
0
  6
CONTINUOUS
 62
     7
 10
581.7974207472
 20
249.4858645878
 30
0.0
 11
581.7898099791
 21
249.4782590351
 31
0.0
  0
LINE
  5
2C5
  8
0
  6
CONTINUOUS
 62
     7
 10
669.3898124169
 20
249.4782590351
 30
0.0
 11
669.3822009038
 21
249.4858645878
 31
0.0
  0
ENDSEC
  0
EOF
