  0
SECTION
  2
HEADER
  9
$ACADVER
  1
AC1009
  9
$DWGCODEPAGE
  3
ansi_1252
  9
$INSBASE
 10
0.0
 20
0.0
 30
0.0
  9
$EXTMIN
 10
0.0
 20
0.0
 30
0.0
  9
$EXTMAX
 10
420.0
 20
297.0
 30
0.0
  9
$LIMMIN
 10
0.0
 20
0.0
  9
$LIMMAX
 10
420.0
 20
297.0
  9
$ORTHOMODE
 70
     0
  9
$REGENMODE
 70
     1
  9
$FILLMODE
 70
     1
  9
$QTEXTMODE
 70
     0
  9
$MIRRTEXT
 70
     1
  9
$DRAGMODE
 70
     2
  9
$LTSCALE
 40
1.0
  9
$OSMODE
 70
    37
  9
$ATTMODE
 70
     1
  9
$TEXTSIZE
 40
3.5
  9
$TRACEWID
 40
1.0
  9
$TEXTSTYLE
  7
STANDARD
  9
$CLAYER
  8
0
  9
$CELTYPE
  6
BYLAYER
  9
$CECOLOR
 62
   256
  9
$DIMSCALE
 40
1.0
  9
$DIMASZ
 40
4.0
  9
$DIMEXO
 40
0.0
  9
$DIMDLI
 40
3.75
  9
$DIMRND
 40
0.0
  9
$DIMDLE
 40
0.0
  9
$DIMEXE
 40
2.0
  9
$DIMTP
 40
0.0
  9
$DIMTM
 40
0.0
  9
$DIMTXT
 40
3.5
  9
$DIMCEN
 40
2.5
  9
$DIMTSZ
 40
0.0
  9
$DIMTOL
 70
     0
  9
$DIMLIM
 70
     0
  9
$DIMTIH
 70
     1
  9
$DIMTOH
 70
     1
  9
$DIMSE1
 70
     0
  9
$DIMSE2
 70
     0
  9
$DIMTAD
 70
     1
  9
$DIMZIN
 70
     0
  9
$DIMBLK
  1

  9
$DIMASO
 70
     1
  9
$DIMSHO
 70
     1
  9
$DIMPOST
  1

  9
$DIMAPOST
  1

  9
$DIMALT
 70
     0
  9
$DIMALTD
 70
     3
  9
$DIMALTF
 40
0.0393700787
  9
$DIMLFAC
 40
5.0
  9
$DIMTOFL
 70
     1
  9
$DIMTVP
 40
0.0
  9
$DIMTIX
 70
     0
  9
$DIMSOXD
 70
     0
  9
$DIMSAH
 70
     0
  9
$DIMBLK1
  1

  9
$DIMBLK2
  1

  9
$DIMSTYLE
  2
ISO-25
  9
$DIMCLRD
 70
     0
  9
$DIMCLRE
 70
     0
  9
$DIMCLRT
 70
     0
  9
$DIMTFAC
 40
1.0
  9
$DIMGAP
 40
1.524
  9
$LUNITS
 70
     2
  9
$LUPREC
 70
     2
  9
$SKETCHINC
 40
1.0
  9
$FILLETRAD
 40
10.0
  9
$AUNITS
 70
     0
  9
$AUPREC
 70
     2
  9
$MENU
  1
.
  9
$ELEVATION
 40
0.0
  9
$PELEVATION
 40
0.0
  9
$THICKNESS
 40
0.0
  9
$LIMCHECK
 70
     0
  9
$CHAMFERA
 40
10.0
  9
$CHAMFERB
 40
10.0
  9
$SKPOLY
 70
     0
  9
$TDCREATE
 40
2457801.414037453
  9
$TDUPDATE
 40
2457801.414037755
  9
$TDINDWG
 40
0.0000000116
  9
$TDUSRTIMER
 40
0.0000000116
  9
$USRTIMER
 70
     1
  9
$ANGBASE
 50
0.0
  9
$ANGDIR
 70
     0
  9
$PDMODE
 70
     0
  9
$PDSIZE
 40
-1.0
  9
$PLINEWID
 40
0.0
  9
$COORDS
 70
     1
  9
$SPLFRAME
 70
     0
  9
$SPLINETYPE
 70
     6
  9
$SPLINESEGS
 70
     8
  9
$ATTDIA
 70
     0
  9
$ATTREQ
 70
     1
  9
$HANDLING
 70
     1
  9
$HANDSEED
  5
628
  9
$SURFTAB1
 70
     6
  9
$SURFTAB2
 70
     6
  9
$SURFTYPE
 70
     6
  9
$SURFU
 70
     6
  9
$SURFV
 70
     6
  9
$UCSNAME
  2

  9
$UCSORG
 10
0.0
 20
0.0
 30
0.0
  9
$UCSXDIR
 10
1.0
 20
0.0
 30
0.0
  9
$UCSYDIR
 10
0.0
 20
1.0
 30
0.0
  9
$PUCSNAME
  2

  9
$PUCSORG
 10
0.0
 20
0.0
 30
0.0
  9
$PUCSXDIR
 10
1.0
 20
0.0
 30
0.0
  9
$PUCSYDIR
 10
0.0
 20
1.0
 30
0.0
  9
$USERI1
 70
     0
  9
$USERI2
 70
     0
  9
$USERI3
 70
     0
  9
$USERI4
 70
     0
  9
$USERI5
 70
     0
  9
$USERR1
 40
0.0
  9
$USERR2
 40
0.0
  9
$USERR3
 40
0.0
  9
$USERR4
 40
0.0
  9
$USERR5
 40
0.0
  9
$WORLDVIEW
 70
     1
  9
$SHADEDGE
 70
     3
  9
$SHADEDIF
 70
    70
  9
$TILEMODE
 70
     1
  9
$MAXACTVP
 70
    64
  9
$PLIMCHECK
 70
     0
  9
$PEXTMIN
 10
1.0000000000E+20
 20
1.0000000000E+20
 30
1.0000000000E+20
  9
$PEXTMAX
 10
-1.0000000000E+20
 20
-1.0000000000E+20
 30
-1.0000000000E+20
  9
$PLIMMIN
 10
0.0
 20
0.0
  9
$PLIMMAX
 10
420.0
 20
297.0
  9
$UNITMODE
 70
     0
  9
$VISRETAIN
 70
     1
  9
$PLINEGEN
 70
     0
  9
$PSLTSCALE
 70
     1
  0
ENDSEC
  0
SECTION
  2
TABLES
  0
TABLE
  2
VPORT
 70
     1
  0
VPORT
  2
*ACTIVE
 70
     0
 10
0.0
 20
0.0
 11
1.0
 21
1.0
 12
210.0
 22
148.5
 13
0.0
 23
0.0
 14
10.0
 24
10.0
 15
10.0
 25
10.0
 16
0.0
 26
0.0
 36
1.0
 17
0.0
 27
0.0
 37
0.0
 40
297.0
 41
1.4141414141
 42
50.0
 43
0.0
 44
0.0
 50
0.0
 51
0.0
 71
     0
 72
  2000
 73
     1
 74
     3
 75
     0
 76
     0
 77
     0
 78
     0
  0
ENDTAB
  0
TABLE
  2
LTYPE
 70
     6
  0
LTYPE
  2
CONTINUOUS
 70
     0
  3
Solid line
 72
    65
 73
     0
 40
0.0
  0
LTYPE
  2
HIDDEN
 70
     0
  3
Hidden __ __ __ __ __ __ __ __ __ __ __ __ __ __
 72
    65
 73
     2
 40
1.905
 49
1.27
 49
-0.635
  0
LTYPE
  2
PHANTOM
 70
     0
  3
Phantom ______  __  __  ______  __  __  ______
 72
    65
 73
     6
 40
12.7
 49
6.35
 49
-1.27
 49
1.27
 49
-1.27
 49
1.27
 49
-1.27
  0
LTYPE
  2
CENTER
 70
     0
  3
Center ____ _ ____ _ ____ _ ____ _ ____ _ ____
 72
    65
 73
     4
 40
10.16
 49
6.35
 49
-1.27
 49
1.27
 49
-1.27
  0
LTYPE
  2
CENTERX2
 70
     0
  3
Center (2x) ________  __  ________  __  _____
 72
    65
 73
     4
 40
20.32
 49
12.7
 49
-2.54
 49
2.54
 49
-2.54
  0
LTYPE
  2
DOT2
 70
     0
  3
Dot (.5x) ........................................
 72
    65
 73
     2
 40
0.635
 49
0.0
 49
-0.635
  0
ENDTAB
  0
TABLE
  2
LAYER
 70
     2
  0
LAYER
  2
0
 70
     0
 62
     7
  6
CONTINUOUS
  0
LAYER
  2
FORMAT
 70
     0
 62
     7
  6
CONTINUOUS
  0
ENDTAB
  0
TABLE
  2
STYLE
 70
     1
  0
STYLE
  2
STANDARD
 70
     0
 40
0.0
 41
1.0
 50
0.0
 71
     0
 42
3.5
  3
txt
  4

  0
ENDTAB
  0
TABLE
  2
VIEW
 70
     0
  0
ENDTAB
  0
TABLE
  2
UCS
 70
     0
  0
ENDTAB
  0
TABLE
  2
APPID
 70
     1
  0
APPID
  2
ACAD
 70
     0
  0
ENDTAB
  0
TABLE
  2
DIMSTYLE
 70
     1
  0
DIMSTYLE
  2
ISO-25
 70
     0
  3

  4

  5

  6

  7

 40
1.0
 41
2.5
 42
0.625
 43
3.75
 44
1.25
 45
0.0
 46
0.0
 47
0.0
 48
0.0
140
2.5
141
2.5
142
0.0
143
0.0393700787
144
1.0
145
0.0
146
1.0
147
0.625
 71
     0
 72
     0
 73
     0
 74
     0
 75
     0
 76
     0
 77
     1
 78
     8
170
     0
171
     3
172
     1
173
     0
174
     0
175
     0
176
     0
177
     0
178
     0
  0
ENDTAB
  0
ENDSEC
  0
SECTION
  2
BLOCKS
  0
BLOCK
  8
0
  2
$MODEL_SPACE
 70
     0
 10
0.0
 20
0.0
 30
0.0
  3
$MODEL_SPACE
  1

  0
ENDBLK
  5
21
  8
0
  0
BLOCK
 67
     1
  8
0
  2
$PAPER_SPACE
 70
     0
 10
0.0
 20
0.0
 30
0.0
  3
$PAPER_SPACE
  1

  0
ENDBLK
  5
1D
 67
     1
  8
0
  0
ENDSEC
  0
SECTION
  2
ENTITIES
  0
ARC
  5
45
  8
0
  6
CONTINUOUS
 62
     7
 10
339.3786190926
 20
194.6072374306
 30
0.0
 40
0.4000000000000341
 50
90.0
 51
180.0
  0
ARC
  5
46
  8
0
  6
CONTINUOUS
 62
     7
 10
360.7786190926
 20
194.6072374306
 30
0.0
 40
0.4000000000000341
 50
0.0
 51
90.0
  0
LINE
  5
47
  8
0
  6
CONTINUOUS
 62
     7
 10
360.7786214767
 20
195.0072368649
 30
0.0
 11
339.3786228119
 21
195.0072368649
 31
0.0
  0
LINE
  5
48
  8
0
  6
CONTINUOUS
 62
     7
 10
361.6786158501
 20
243.5162385968
 30
0.0
 11
338.4786165176
 21
243.5162385968
 31
0.0
  0
ARC
  5
49
  8
0
  6
CONTINUOUS
 62
     7
 10
361.6786190926
 20
243.1162381841
 30
0.0
 40
0.4000000000000341
 50
0.0
 51
90.0
  0
ARC
  5
4A
  8
0
  6
CONTINUOUS
 62
     7
 10
338.4786190926
 20
243.1162381841
 30
0.0
 40
0.4000000000000341
 50
90.0
 51
180.0
  0
ARC
  5
4B
  8
0
  6
CONTINUOUS
 62
     7
 10
248.7786190926
 20
194.6072374306
 30
0.0
 40
0.4000000000000341
 50
0.0
 51
90.0
  0
ARC
  5
4C
  8
0
  6
CONTINUOUS
 62
     7
 10
227.3786190926
 20
194.6072374306
 30
0.0
 40
0.4000000000000341
 50
90.0
 51
180.0
  0
LINE
  5
4D
  8
0
  6
CONTINUOUS
 62
     7
 10
248.7786187647
 20
195.0072368649
 30
0.0
 11
227.3786193548
 21
195.0072368649
 31
0.0
  0
ARC
  5
4E
  8
0
  6
CONTINUOUS
 62
     7
 10
249.6786190926
 20
243.1162381841
 30
0.0
 40
0.4000000000000057
 50
0.0
 51
90.0
  0
LINE
  5
4F
  8
0
  6
CONTINUOUS
 62
     7
 10
249.6786190985
 20
243.5162385968
 30
0.0
 11
226.478619021
 21
243.5162385968
 31
0.0
  0
ARC
  5
50
  8
0
  6
CONTINUOUS
 62
     7
 10
226.4786190926
 20
243.1162381841
 30
0.0
 40
0.4000000000000057
 50
90.0
 51
180.0
  0
ARC
  5
51
  8
0
  6
CONTINUOUS
 62
     7
 10
115.3786190926
 20
194.6072374306
 30
0.0
 40
0.4000000000000057
 50
90.0
 51
180.0
  0
ARC
  5
52
  8
0
  6
CONTINUOUS
 62
     7
 10
136.7786190926
 20
194.6072374306
 30
0.0
 40
0.4000000000000057
 50
0.0
 51
90.0
  0
LINE
  5
53
  8
0
  6
CONTINUOUS
 62
     7
 10
136.7786205231
 20
195.0072368649
 30
0.0
 11
115.3786218582
 21
195.0072368649
 31
0.0
  0
LINE
  5
54
  8
0
  6
CONTINUOUS
 62
     7
 10
137.6786148964
 20
243.5162385968
 30
0.0
 11
114.478615564
 21
243.5162385968
 31
0.0
  0
ARC
  5
55
  8
0
  6
CONTINUOUS
 62
     7
 10
114.4786190926
 20
243.1162381841
 30
0.0
 40
0.4000000000000057
 50
90.0
 51
180.0
  0
ARC
  5
56
  8
0
  6
CONTINUOUS
 62
     7
 10
137.6786190926
 20
243.1162381841
 30
0.0
 40
0.4000000000000057
 50
0.0
 51
90.0
  0
ARC
  5
57
  8
0
  6
CONTINUOUS
 62
     7
 10
451.3786190926
 20
194.6072374306
 30
0.0
 40
0.4000000000000057
 50
90.0
 51
180.0
  0
ARC
  5
58
  8
0
  6
CONTINUOUS
 62
     7
 10
462.2786190926
 20
194.6072374306
 30
0.0
 40
0.4000000000000057
 50
0.0
 51
90.0
  0
LINE
  5
59
  8
0
  6
CONTINUOUS
 62
     7
 10
462.2786200462
 20
195.0072368649
 30
0.0
 11
451.3786232887
 21
195.0072368649
 31
0.0
  0
ARC
  5
5A
  8
0
  6
CONTINUOUS
 62
     7
 10
14.2786190926
 20
194.6072374306
 30
0.0
 40
0.400000000000011
 50
90.0
 51
180.0
  0
ARC
  5
5B
  8
0
  6
CONTINUOUS
 62
     7
 10
25.1786190926
 20
194.6072374306
 30
0.0
 40
0.4000000000000092
 50
0.0
 51
90.0
  0
LINE
  5
5C
  8
0
  6
CONTINUOUS
 62
     7
 10
25.1786148964
 20
195.0072368649
 30
0.0
 11
14.2786181389
 21
195.0072368649
 31
0.0
  0
LINE
  5
5D
  8
0
  6
CONTINUOUS
 62
     7
 10
362.4786174713
 20
123.2110997705
 30
0.0
 11
363.4786165176
 21
123.2110997705
 31
0.0
  0
LINE
  5
5E
  8
0
  6
CONTINUOUS
 62
     7
 10
363.4786165176
 20
128.0111035375
 30
0.0
 11
362.4786174713
 21
128.0111035375
 31
0.0
  0
LINE
  5
5F
  8
0
  6
CONTINUOUS
 62
     7
 10
449.078623098
 20
123.2110997705
 30
0.0
 11
450.0786221443
 21
123.2110997705
 31
0.0
  0
LINE
  5
60
  8
0
  6
CONTINUOUS
 62
     7
 10
450.0786221443
 20
128.0111035375
 30
0.0
 11
449.078623098
 21
128.0111035375
 31
0.0
  0
LINE
  5
61
  8
0
  6
CONTINUOUS
 62
     7
 10
113.0786216675
 20
123.2110997705
 30
0.0
 11
114.0786207138
 21
123.2110997705
 31
0.0
  0
LINE
  5
62
  8
0
  6
CONTINUOUS
 62
     7
 10
114.0786207138
 20
128.0111035375
 30
0.0
 11
113.0786216675
 21
128.0111035375
 31
0.0
  0
LINE
  5
63
  8
0
  6
CONTINUOUS
 62
     7
 10
26.4786160408
 20
123.2110997705
 30
0.0
 11
27.4786150871
 21
123.2110997705
 31
0.0
  0
LINE
  5
64
  8
0
  6
CONTINUOUS
 62
     7
 10
27.4786150871
 20
128.0111035375
 30
0.0
 11
26.4786160408
 21
128.0111035375
 31
0.0
  0
ARC
  5
65
  8
0
  6
CONTINUOUS
 62
     7
 10
112.6786190926
 20
107.9984147436
 30
0.0
 40
0.4000000000000057
 50
270.0
 51
0.0
  0
LINE
  5
66
  8
0
  6
CONTINUOUS
 62
     7
 10
27.8786099373
 20
107.5984140901
 30
0.0
 11
112.6786148964
 21
107.5984140901
 31
0.0
  0
ARC
  5
67
  8
0
  6
CONTINUOUS
 62
     7
 10
27.8786190926
 20
107.9984147436
 30
0.0
 40
0.4000000000000057
 50
180.0
 51
270.0
  0
LINE
  5
68
  8
0
  6
CONTINUOUS
 62
     7
 10
27.3877537666
 20
121.1366137532
 30
0.0
 11
27.4786150871
 21
121.1366137532
 31
0.0
  0
LINE
  5
69
  8
0
  6
CONTINUOUS
 62
     7
 10
113.0786216675
 20
121.1366137532
 30
0.0
 11
113.169482988
 21
121.1366137532
 31
0.0
  0
ARC
  5
6A
  8
0
  6
CONTINUOUS
 62
     7
 10
112.6786190926
 20
194.2347743616
 30
0.0
 40
0.4000000000000341
 50
0.0
 51
90.0
  0
ARC
  5
6B
  8
0
  6
CONTINUOUS
 62
     7
 10
27.8786190926
 20
194.2347743616
 30
0.0
 40
0.4000000000000341
 50
90.0
 51
180.0
  0
LINE
  5
6C
  8
0
  6
CONTINUOUS
 62
     7
 10
112.6786148964
 20
194.6347793607
 30
0.0
 11
27.8786099373
 21
194.6347793607
 31
0.0
  0
LINE
  5
6D
  8
0
  6
CONTINUOUS
 62
     7
 10
225.0786191641
 20
123.2110997705
 30
0.0
 11
226.0786189555
 21
123.2110997705
 31
0.0
  0
LINE
  5
6E
  8
0
  6
CONTINUOUS
 62
     7
 10
226.0786189555
 20
128.0111035375
 30
0.0
 11
225.0786191641
 21
128.0111035375
 31
0.0
  0
LINE
  5
6F
  8
0
  6
CONTINUOUS
 62
     7
 10
138.4786165176
 20
123.2110997705
 30
0.0
 11
139.4786215244
 21
123.2110997705
 31
0.0
  0
LINE
  5
70
  8
0
  6
CONTINUOUS
 62
     7
 10
139.4786215244
 20
128.0111035375
 30
0.0
 11
138.4786165176
 21
128.0111035375
 31
0.0
  0
ARC
  5
71
  8
0
  6
CONTINUOUS
 62
     7
 10
139.8786190926
 20
107.9984147436
 30
0.0
 40
0.4000000000000057
 50
180.0
 51
270.0
  0
LINE
  5
72
  8
0
  6
CONTINUOUS
 62
     7
 10
139.8786163746
 20
107.5984140901
 30
0.0
 11
224.6786183535
 21
107.5984140901
 31
0.0
  0
ARC
  5
73
  8
0
  6
CONTINUOUS
 62
     7
 10
224.6786190926
 20
107.9984147436
 30
0.0
 40
0.4000000000000057
 50
270.0
 51
0.0
  0
LINE
  5
74
  8
0
  6
CONTINUOUS
 62
     7
 10
139.3877542435
 20
121.1366137532
 30
0.0
 11
139.4786215244
 21
121.1366137532
 31
0.0
  0
LINE
  5
75
  8
0
  6
CONTINUOUS
 62
     7
 10
225.0786191641
 20
121.1366137532
 30
0.0
 11
225.169486445
 21
121.1366137532
 31
0.0
  0
ARC
  5
76
  8
0
  6
CONTINUOUS
 62
     7
 10
224.6786190926
 20
194.2347743616
 30
0.0
 40
0.4000000000000341
 50
0.0
 51
90.0
  0
ARC
  5
77
  8
0
  6
CONTINUOUS
 62
     7
 10
139.8786190926
 20
194.2347743616
 30
0.0
 40
0.4000000000000341
 50
90.0
 51
180.0
  0
LINE
  5
78
  8
0
  6
CONTINUOUS
 62
     7
 10
224.6786183535
 20
194.6347793607
 30
0.0
 11
139.8786163746
 21
194.6347793607
 31
0.0
  0
LINE
  5
79
  8
0
  6
CONTINUOUS
 62
     7
 10
250.4786192297
 20
123.2110997705
 30
0.0
 11
251.478619021
 21
123.2110997705
 31
0.0
  0
LINE
  5
7A
  8
0
  6
CONTINUOUS
 62
     7
 10
251.478619021
 20
128.0111035375
 30
0.0
 11
250.4786192297
 21
128.0111035375
 31
0.0
  0
LINE
  5
7B
  8
0
  6
CONTINUOUS
 62
     7
 10
337.0786166607
 20
123.2110997705
 30
0.0
 11
338.0786216675
 21
123.2110997705
 31
0.0
  0
LINE
  5
7C
  8
0
  6
CONTINUOUS
 62
     7
 10
338.0786216675
 20
128.0111035375
 30
0.0
 11
337.0786166607
 21
128.0111035375
 31
0.0
  0
ARC
  5
7D
  8
0
  6
CONTINUOUS
 62
     7
 10
251.8786190926
 20
107.9984147436
 30
0.0
 40
0.4000000000000057
 50
180.0
 51
270.0
  0
LINE
  5
7E
  8
0
  6
CONTINUOUS
 62
     7
 10
251.8786198317
 20
107.5984140901
 30
0.0
 11
336.6786218105
 21
107.5984140901
 31
0.0
  0
ARC
  5
7F
  8
0
  6
CONTINUOUS
 62
     7
 10
336.6786190926
 20
107.9984147436
 30
0.0
 40
0.4000000000000057
 50
270.0
 51
0.0
  0
LINE
  5
80
  8
0
  6
CONTINUOUS
 62
     7
 10
251.3877517401
 20
121.1366137532
 30
0.0
 11
251.478619021
 21
121.1366137532
 31
0.0
  0
LINE
  5
81
  8
0
  6
CONTINUOUS
 62
     7
 10
337.0786166607
 20
121.1366137532
 30
0.0
 11
337.1694839417
 21
121.1366137532
 31
0.0
  0
ARC
  5
82
  8
0
  6
CONTINUOUS
 62
     7
 10
336.6786190926
 20
194.2347743616
 30
0.0
 40
0.4000000000000341
 50
0.0
 51
90.0
  0
ARC
  5
83
  8
0
  6
CONTINUOUS
 62
     7
 10
251.8786190926
 20
194.2347743616
 30
0.0
 40
0.4000000000000341
 50
90.0
 51
180.0
  0
LINE
  5
84
  8
0
  6
CONTINUOUS
 62
     7
 10
336.6786218105
 20
194.6347793607
 30
0.0
 11
251.8786198317
 21
194.6347793607
 31
0.0
  0
LINE
  5
85
  8
0
  6
CONTINUOUS
 62
     7
 10
338.17862038
 20
126.8111011056
 30
0.0
 11
338.0786216675
 21
126.8111011056
 31
0.0
  0
LINE
  5
86
  8
0
  6
CONTINUOUS
 62
     7
 10
250.4786192297
 20
126.8111011056
 30
0.0
 11
250.378619027
 21
126.8111011056
 31
0.0
  0
LINE
  5
87
  8
0
  6
CONTINUOUS
 62
     7
 10
250.378619027
 20
124.4111022023
 30
0.0
 11
250.4786192297
 21
124.4111022023
 31
0.0
  0
LINE
  5
88
  8
0
  6
CONTINUOUS
 62
     7
 10
338.0786216675
 20
124.4111022023
 30
0.0
 11
338.17862038
 21
124.4111022023
 31
0.0
  0
LINE
  5
89
  8
0
  6
CONTINUOUS
 62
     7
 10
338.9786160408
 20
194.1961726216
 30
0.0
 11
338.17862038
 21
194.1961726216
 31
0.0
  0
LINE
  5
8A
  8
0
  6
CONTINUOUS
 62
     7
 10
250.378619027
 20
194.1961726216
 30
0.0
 11
249.5786188959
 21
194.1961726216
 31
0.0
  0
LINE
  5
8B
  8
0
  6
CONTINUOUS
 62
     7
 10
338.0710101543
 20
243.3835348157
 30
0.0
 11
250.4862299977
 21
243.3835348157
 31
0.0
  0
LINE
  5
8C
  8
0
  6
CONTINUOUS
 62
     7
 10
114.1786134659
 20
126.8111011056
 30
0.0
 11
114.0786207138
 21
126.8111011056
 31
0.0
  0
LINE
  5
8D
  8
0
  6
CONTINUOUS
 62
     7
 10
26.4786160408
 20
126.8111011056
 30
0.0
 11
26.3786232887
 21
126.8111011056
 31
0.0
  0
LINE
  5
8E
  8
0
  6
CONTINUOUS
 62
     7
 10
26.3786232887
 20
124.4111022023
 30
0.0
 11
26.4786160408
 21
124.4111022023
 31
0.0
  0
LINE
  5
8F
  8
0
  6
CONTINUOUS
 62
     7
 10
114.0786207138
 20
124.4111022023
 30
0.0
 11
114.1786134659
 21
124.4111022023
 31
0.0
  0
LINE
  5
90
  8
0
  6
CONTINUOUS
 62
     7
 10
114.9786150871
 20
194.1961726216
 30
0.0
 11
114.1786134659
 21
194.1961726216
 31
0.0
  0
LINE
  5
91
  8
0
  6
CONTINUOUS
 62
     7
 10
26.3786232887
 20
194.1961726216
 30
0.0
 11
25.5786097466
 21
194.1961726216
 31
0.0
  0
LINE
  5
92
  8
0
  6
CONTINUOUS
 62
     7
 10
114.0710032402
 20
243.3835348157
 30
0.0
 11
26.4862215935
 21
243.3835348157
 31
0.0
  0
LINE
  5
93
  8
0
  6
CONTINUOUS
 62
     7
 10
450.1786148964
 20
126.8111011056
 30
0.0
 11
450.0786221443
 21
126.8111011056
 31
0.0
  0
LINE
  5
94
  8
0
  6
CONTINUOUS
 62
     7
 10
362.4786174713
 20
126.8111011056
 30
0.0
 11
362.3786247192
 21
126.8111011056
 31
0.0
  0
LINE
  5
95
  8
0
  6
CONTINUOUS
 62
     7
 10
362.3786247192
 20
124.4111022023
 30
0.0
 11
362.4786174713
 21
124.4111022023
 31
0.0
  0
LINE
  5
96
  8
0
  6
CONTINUOUS
 62
     7
 10
450.0786221443
 20
124.4111022023
 30
0.0
 11
450.1786148964
 21
124.4111022023
 31
0.0
  0
LINE
  5
97
  8
0
  6
CONTINUOUS
 62
     7
 10
450.9786284386
 20
194.1961726216
 30
0.0
 11
450.1786148964
 21
194.1961726216
 31
0.0
  0
LINE
  5
98
  8
0
  6
CONTINUOUS
 62
     7
 10
362.3786247192
 20
194.1961726216
 30
0.0
 11
361.578623098
 21
194.1961726216
 31
0.0
  0
LINE
  5
99
  8
0
  6
CONTINUOUS
 62
     7
 10
450.0710165916
 20
243.3835348157
 30
0.0
 11
362.4862349449
 21
243.3835348157
 31
0.0
  0
LINE
  5
9A
  8
0
  6
CONTINUOUS
 62
     7
 10
226.1786191581
 20
126.8111011056
 30
0.0
 11
226.0786189555
 21
126.8111011056
 31
0.0
  0
LINE
  5
9B
  8
0
  6
CONTINUOUS
 62
     7
 10
138.4786165176
 20
126.8111011056
 30
0.0
 11
138.3786178051
 21
126.8111011056
 31
0.0
  0
LINE
  5
9C
  8
0
  6
CONTINUOUS
 62
     7
 10
138.3786178051
 20
124.4111022023
 30
0.0
 11
138.4786165176
 21
124.4111022023
 31
0.0
  0
LINE
  5
9D
  8
0
  6
CONTINUOUS
 62
     7
 10
226.0786189555
 20
124.4111022023
 30
0.0
 11
226.1786191581
 21
124.4111022023
 31
0.0
  0
LINE
  5
9E
  8
0
  6
CONTINUOUS
 62
     7
 10
226.9786192893
 20
194.1961726216
 30
0.0
 11
226.1786191581
 21
194.1961726216
 31
0.0
  0
LINE
  5
9F
  8
0
  6
CONTINUOUS
 62
     7
 10
138.3786178051
 20
194.1961726216
 30
0.0
 11
137.5786221443
 21
194.1961726216
 31
0.0
  0
LINE
  5
A0
  8
0
  6
CONTINUOUS
 62
     7
 10
226.0710081874
 20
243.3835348157
 30
0.0
 11
138.4862280308
 21
243.3835348157
 31
0.0
  0
ARC
  5
A1
  8
0
  6
CONTINUOUS
 62
     7
 10
360.7786190926
 20
108.2111008672
 30
0.0
 40
0.3999999999999915
 50
270.0
 51
0.0
  0
ARC
  5
A2
  8
0
  6
CONTINUOUS
 62
     7
 10
339.3786190926
 20
108.2111008672
 30
0.0
 40
0.3999999999999915
 50
180.0
 51
270.0
  0
LINE
  5
A3
  8
0
  6
CONTINUOUS
 62
     7
 10
360.7786214767
 20
107.811101344
 30
0.0
 11
339.3786228119
 21
107.811101344
 31
0.0
  0
LINE
  5
A4
  8
0
  6
CONTINUOUS
 62
     7
 10
338.9786160408
 20
108.2111021546
 30
0.0
 11
338.9786160408
 21
190.8459862737
 31
0.0
  0
LINE
  5
A5
  8
0
  6
CONTINUOUS
 62
     7
 10
361.1786163269
 20
190.8459862737
 30
0.0
 11
361.1786163269
 21
108.2111021546
 31
0.0
  0
LINE
  5
A6
  8
0
  6
CONTINUOUS
 62
     7
 10
361.1786163269
 20
194.6072420148
 30
0.0
 11
361.1786163269
 21
190.8459862737
 31
0.0
  0
LINE
  5
A7
  8
0
  6
CONTINUOUS
 62
     7
 10
338.9786160408
 20
190.8459862737
 30
0.0
 11
338.9786160408
 21
194.6072420148
 31
0.0
  0
LINE
  5
A8
  8
0
  6
CONTINUOUS
 62
     7
 10
361.8786132751
 20
194.1961726216
 30
0.0
 11
361.8786132751
 21
194.3002065686
 31
0.0
  0
LINE
  5
A9
  8
0
  6
CONTINUOUS
 62
     7
 10
361.8786132751
 20
194.3002065686
 30
0.0
 11
361.1786163269
 21
194.3002065686
 31
0.0
  0
LINE
  5
AA
  8
0
  6
CONTINUOUS
 62
     7
 10
361.6786158501
 20
194.3176349668
 30
0.0
 11
361.1786163269
 21
194.3176349668
 31
0.0
  0
ARC
  5
AB
  8
0
  6
CONTINUOUS
 62
     7
 10
361.7779057324
 20
193.1444467872
 30
0.0
 40
1.177382259692445
 50
75.2020342195
 51
94.8375587467
  0
LINE
  5
AC
  8
0
  6
CONTINUOUS
 62
     7
 10
362.0786226212
 20
194.1961726216
 30
0.0
 11
362.0786226212
 21
194.2827781705
 31
0.0
  0
LINE
  5
AD
  8
0
  6
CONTINUOUS
 62
     7
 10
362.0786226212
 20
243.1162437467
 30
0.0
 11
362.0786226212
 21
194.2827781705
 31
0.0
  0
LINE
  5
AE
  8
0
  6
CONTINUOUS
 62
     7
 10
338.0786216675
 20
194.2827781705
 30
0.0
 11
338.0786216675
 21
243.1162437467
 31
0.0
  0
ARC
  5
AF
  8
0
  6
CONTINUOUS
 62
     7
 10
338.3793279308
 20
193.1445347631
 30
0.0
 40
1.177294487959089
 50
85.1621430098
 51
104.7985593781
  0
LINE
  5
B0
  8
0
  6
CONTINUOUS
 62
     7
 10
338.9786160408
 20
194.3002065686
 30
0.0
 11
338.2786190926
 21
194.3002065686
 31
0.0
  0
LINE
  5
B1
  8
0
  6
CONTINUOUS
 62
     7
 10
338.2786190926
 20
194.3002065686
 30
0.0
 11
338.2786190926
 21
194.1961726216
 31
0.0
  0
LINE
  5
B2
  8
0
  6
CONTINUOUS
 62
     7
 10
338.17862038
 20
193.9690193204
 30
0.0
 11
338.0786216675
 21
193.9690193204
 31
0.0
  0
LINE
  5
B3
  8
0
  6
CONTINUOUS
 62
     7
 10
338.0786216675
 20
194.2435106305
 30
0.0
 11
338.0786216675
 21
194.2827781705
 31
0.0
  0
LINE
  5
B4
  8
0
  6
CONTINUOUS
 62
     7
 10
338.9786160408
 20
194.3176349668
 30
0.0
 11
338.4786165176
 21
194.3176349668
 31
0.0
  0
ARC
  5
B5
  8
0
  6
CONTINUOUS
 62
     7
 10
248.7786190926
 20
108.2111008672
 30
0.0
 40
0.3999999999999915
 50
270.0
 51
0.0
  0
LINE
  5
B6
  8
0
  6
CONTINUOUS
 62
     7
 10
248.7786187647
 20
107.811101344
 30
0.0
 11
227.3786193548
 21
107.811101344
 31
0.0
  0
ARC
  5
B7
  8
0
  6
CONTINUOUS
 62
     7
 10
227.3786190926
 20
108.2111008672
 30
0.0
 40
0.4000000000000057
 50
180.0
 51
270.0
  0
LINE
  5
B8
  8
0
  6
CONTINUOUS
 62
     7
 10
249.1786188303
 20
190.8459862737
 30
0.0
 11
249.1786188303
 21
108.2111021546
 31
0.0
  0
LINE
  5
B9
  8
0
  6
CONTINUOUS
 62
     7
 10
226.9786192893
 20
108.2111021546
 30
0.0
 11
226.9786192893
 21
190.8459862737
 31
0.0
  0
LINE
  5
BA
  8
0
  6
CONTINUOUS
 62
     7
 10
249.1786188303
 20
194.6072420148
 30
0.0
 11
249.1786188303
 21
190.8459862737
 31
0.0
  0
LINE
  5
BB
  8
0
  6
CONTINUOUS
 62
     7
 10
226.9786192893
 20
190.8459862737
 30
0.0
 11
226.9786192893
 21
194.6072420148
 31
0.0
  0
LINE
  5
BC
  8
0
  6
CONTINUOUS
 62
     7
 10
249.6786190985
 20
194.3176349668
 30
0.0
 11
249.1786188303
 21
194.3176349668
 31
0.0
  0
LINE
  5
BD
  8
0
  6
CONTINUOUS
 62
     7
 10
226.9786192893
 20
194.3176349668
 30
0.0
 11
226.478619021
 21
194.3176349668
 31
0.0
  0
LINE
  5
BE
  8
0
  6
CONTINUOUS
 62
     7
 10
249.8786187588
 20
194.1961726216
 30
0.0
 11
249.8786187588
 21
194.3002065686
 31
0.0
  0
LINE
  5
BF
  8
0
  6
CONTINUOUS
 62
     7
 10
249.8786187588
 20
194.3002065686
 30
0.0
 11
249.1786188303
 21
194.3002065686
 31
0.0
  0
ARC
  5
C0
  8
0
  6
CONTINUOUS
 62
     7
 10
249.7779053787
 20
193.1444632996
 30
0.0
 40
1.177365502291687
 50
75.2019749924
 51
94.8374518392
  0
LINE
  5
C1
  8
0
  6
CONTINUOUS
 62
     7
 10
250.0786191641
 20
194.1961726216
 30
0.0
 11
250.0786191641
 21
194.2827781705
 31
0.0
  0
LINE
  5
C2
  8
0
  6
CONTINUOUS
 62
     7
 10
226.9786192893
 20
194.3002065686
 30
0.0
 11
226.2786193608
 21
194.3002065686
 31
0.0
  0
LINE
  5
C3
  8
0
  6
CONTINUOUS
 62
     7
 10
226.2786193608
 20
194.3002065686
 30
0.0
 11
226.2786193608
 21
194.1961726216
 31
0.0
  0
LINE
  5
C4
  8
0
  6
CONTINUOUS
 62
     7
 10
226.1786191581
 20
193.9690193204
 30
0.0
 11
226.0786189555
 21
193.9690193204
 31
0.0
  0
LINE
  5
C5
  8
0
  6
CONTINUOUS
 62
     7
 10
226.0786189555
 20
194.2435106305
 30
0.0
 11
226.0786189555
 21
194.2827781705
 31
0.0
  0
ARC
  5
C6
  8
0
  6
CONTINUOUS
 62
     7
 10
226.3793327409
 20
193.1444632996
 30
0.0
 40
1.177365502290792
 50
85.1625481608
 51
104.7980250076
  0
LINE
  5
C7
  8
0
  6
CONTINUOUS
 62
     7
 10
226.0786189555
 20
194.2827781705
 30
0.0
 11
226.0786189555
 21
243.1162437467
 31
0.0
  0
LINE
  5
C8
  8
0
  6
CONTINUOUS
 62
     7
 10
250.0786191641
 20
243.1162437467
 30
0.0
 11
250.0786191641
 21
194.2827781705
 31
0.0
  0
LINE
  5
C9
  8
0
  6
CONTINUOUS
 62
     7
 10
136.7786205231
 20
107.811101344
 30
0.0
 11
115.3786218582
 21
107.811101344
 31
0.0
  0
ARC
  5
CA
  8
0
  6
CONTINUOUS
 62
     7
 10
115.3786190926
 20
108.2111008672
 30
0.0
 40
0.4000000000000057
 50
180.0
 51
270.0
  0
ARC
  5
CB
  8
0
  6
CONTINUOUS
 62
     7
 10
136.7786190926
 20
108.2111008672
 30
0.0
 40
0.3999999999999915
 50
270.0
 51
0.0
  0
LINE
  5
CC
  8
0
  6
CONTINUOUS
 62
     7
 10
114.9786150871
 20
108.2111021546
 30
0.0
 11
114.9786150871
 21
190.8459862737
 31
0.0
  0
LINE
  5
CD
  8
0
  6
CONTINUOUS
 62
     7
 10
137.1786153732
 20
190.8459862737
 30
0.0
 11
137.1786153732
 21
108.2111021546
 31
0.0
  0
LINE
  5
CE
  8
0
  6
CONTINUOUS
 62
     7
 10
137.1786153732
 20
194.6072420148
 30
0.0
 11
137.1786153732
 21
190.8459862737
 31
0.0
  0
LINE
  5
CF
  8
0
  6
CONTINUOUS
 62
     7
 10
114.9786150871
 20
190.8459862737
 30
0.0
 11
114.9786150871
 21
194.6072420148
 31
0.0
  0
LINE
  5
D0
  8
0
  6
CONTINUOUS
 62
     7
 10
138.0786216675
 20
243.1162437467
 30
0.0
 11
138.0786216675
 21
194.2827781705
 31
0.0
  0
ARC
  5
D1
  8
0
  6
CONTINUOUS
 62
     7
 10
137.7779047787
 20
193.1444467872
 30
0.0
 40
1.177382259692329
 50
75.2020342195
 51
94.8375587467
  0
LINE
  5
D2
  8
0
  6
CONTINUOUS
 62
     7
 10
114.9786150871
 20
194.3002065686
 30
0.0
 11
114.2786181389
 21
194.3002065686
 31
0.0
  0
LINE
  5
D3
  8
0
  6
CONTINUOUS
 62
     7
 10
114.2786181389
 20
194.3002065686
 30
0.0
 11
114.2786181389
 21
194.1961726216
 31
0.0
  0
LINE
  5
D4
  8
0
  6
CONTINUOUS
 62
     7
 10
114.1786134659
 20
193.9690193204
 30
0.0
 11
114.0786207138
 21
193.9690193204
 31
0.0
  0
LINE
  5
D5
  8
0
  6
CONTINUOUS
 62
     7
 10
114.0786207138
 20
194.2435106305
 30
0.0
 11
114.0786207138
 21
194.2827781705
 31
0.0
  0
ARC
  5
D6
  8
0
  6
CONTINUOUS
 62
     7
 10
114.379332657
 20
193.1444695843
 30
0.0
 40
1.177358955565043
 50
85.1626859411
 51
104.7980164469
  0
LINE
  5
D7
  8
0
  6
CONTINUOUS
 62
     7
 10
114.9786150871
 20
194.3176349668
 30
0.0
 11
114.478615564
 21
194.3176349668
 31
0.0
  0
LINE
  5
D8
  8
0
  6
CONTINUOUS
 62
     7
 10
137.8786242424
 20
194.1961726216
 30
0.0
 11
137.8786242424
 21
194.3002065686
 31
0.0
  0
LINE
  5
D9
  8
0
  6
CONTINUOUS
 62
     7
 10
137.8786242424
 20
194.3002065686
 30
0.0
 11
137.1786153732
 21
194.3002065686
 31
0.0
  0
LINE
  5
DA
  8
0
  6
CONTINUOUS
 62
     7
 10
137.6786148964
 20
194.3176349668
 30
0.0
 11
137.1786153732
 21
194.3176349668
 31
0.0
  0
LINE
  5
DB
  8
0
  6
CONTINUOUS
 62
     7
 10
138.0786216675
 20
194.1961726216
 30
0.0
 11
138.0786216675
 21
194.2827781705
 31
0.0
  0
LINE
  5
DC
  8
0
  6
CONTINUOUS
 62
     7
 10
114.0786207138
 20
194.2827781705
 30
0.0
 11
114.0786207138
 21
243.1162437467
 31
0.0
  0
ARC
  5
DD
  8
0
  6
CONTINUOUS
 62
     7
 10
462.2786190926
 20
108.2111008672
 30
0.0
 40
0.3999999999999915
 50
270.0
 51
0.0
  0
ARC
  5
DE
  8
0
  6
CONTINUOUS
 62
     7
 10
451.3786190926
 20
108.2111008672
 30
0.0
 40
0.3999999999999915
 50
180.0
 51
270.0
  0
LINE
  5
DF
  8
0
  6
CONTINUOUS
 62
     7
 10
462.2786200462
 20
107.811101344
 30
0.0
 11
451.3786232887
 21
107.811101344
 31
0.0
  0
LINE
  5
E0
  8
0
  6
CONTINUOUS
 62
     7
 10
450.9786284386
 20
108.2111021546
 30
0.0
 11
450.9786284386
 21
190.8459862737
 31
0.0
  0
LINE
  5
E1
  8
0
  6
CONTINUOUS
 62
     7
 10
462.6786148964
 20
190.8459862737
 30
0.0
 11
462.6786148964
 21
108.2111021546
 31
0.0
  0
LINE
  5
E2
  8
0
  6
CONTINUOUS
 62
     7
 10
450.9786284386
 20
190.8459862737
 30
0.0
 11
450.9786284386
 21
194.6072420148
 31
0.0
  0
LINE
  5
E3
  8
0
  6
CONTINUOUS
 62
     7
 10
462.6786148964
 20
194.6072420148
 30
0.0
 11
462.6786148964
 21
190.8459862737
 31
0.0
  0
ARC
  5
E4
  8
0
  6
CONTINUOUS
 62
     7
 10
14.2786190926
 20
108.2111008672
 30
0.0
 40
0.400000000000011
 50
180.0
 51
270.0
  0
ARC
  5
E5
  8
0
  6
CONTINUOUS
 62
     7
 10
25.1786190926
 20
108.2111008672
 30
0.0
 40
0.4000000000000092
 50
270.0
 51
0.0
  0
LINE
  5
E6
  8
0
  6
CONTINUOUS
 62
     7
 10
25.1786148964
 20
107.811101344
 30
0.0
 11
14.2786181389
 21
107.811101344
 31
0.0
  0
LINE
  5
E7
  8
0
  6
CONTINUOUS
 62
     7
 10
13.8786232887
 20
108.2111021546
 30
0.0
 11
13.8786232887
 21
190.8459862737
 31
0.0
  0
LINE
  5
E8
  8
0
  6
CONTINUOUS
 62
     7
 10
25.5786097466
 20
190.8459862737
 30
0.0
 11
25.5786097466
 21
108.2111021546
 31
0.0
  0
LINE
  5
E9
  8
0
  6
CONTINUOUS
 62
     7
 10
13.8786232887
 20
190.8459862737
 30
0.0
 11
13.8786232887
 21
194.6072420148
 31
0.0
  0
LINE
  5
EA
  8
0
  6
CONTINUOUS
 62
     7
 10
25.5786097466
 20
194.6072420148
 30
0.0
 11
25.5786097466
 21
190.8459862737
 31
0.0
  0
LINE
  5
EB
  8
0
  6
CONTINUOUS
 62
     7
 10
449.1786158501
 20
129.2111000089
 30
0.0
 11
448.6786282478
 21
129.2111000089
 31
0.0
  0
LINE
  5
EC
  8
0
  6
CONTINUOUS
 62
     7
 10
363.3786237656
 20
133.4110995797
 30
0.0
 11
363.3786237656
 21
129.2111000089
 31
0.0
  0
LINE
  5
ED
  8
0
  6
CONTINUOUS
 62
     7
 10
449.1786158501
 20
133.4110995797
 30
0.0
 11
449.1786158501
 21
129.2111000089
 31
0.0
  0
LINE
  5
EE
  8
0
  6
CONTINUOUS
 62
     7
 10
363.8786232887
 20
129.2111000089
 30
0.0
 11
363.3786237656
 21
129.2111000089
 31
0.0
  0
LINE
  5
EF
  8
0
  6
CONTINUOUS
 62
     7
 10
365.7786167084
 20
135.811098483
 30
0.0
 11
446.7786229073
 21
135.811098483
 31
0.0
  0
ARC
  5
F0
  8
0
  6
CONTINUOUS
 62
     7
 10
446.7786287367
 20
133.4111113696
 30
0.0
 40
2.399987113382596
 50
359.9997185354
 51
90.0001391688
  0
ARC
  5
F1
  8
0
  6
CONTINUOUS
 62
     7
 10
365.7786078526
 20
133.4111143959
 30
0.0
 40
2.399984087096445
 50
89.9997885829
 51
180.0003537129
  0
LINE
  5
F2
  8
0
  6
CONTINUOUS
 62
     7
 10
363.4786165176
 20
129.1111012963
 30
0.0
 11
363.4786165176
 21
129.2111000089
 31
0.0
  0
LINE
  5
F3
  8
0
  6
CONTINUOUS
 62
     7
 10
449.078623098
 20
129.2111000089
 30
0.0
 11
449.078623098
 21
129.1111012963
 31
0.0
  0
LINE
  5
F4
  8
0
  6
CONTINUOUS
 62
     7
 10
363.4786165176
 20
121.6111024884
 30
0.0
 11
363.4786165176
 21
129.1111012963
 31
0.0
  0
LINE
  5
F5
  8
0
  6
CONTINUOUS
 62
     7
 10
449.078623098
 20
129.1111012963
 30
0.0
 11
449.078623098
 21
121.6111024884
 31
0.0
  0
ARC
  5
F6
  8
0
  6
CONTINUOUS
 62
     7
 10
363.8786190926
 20
121.6111008672
 30
0.0
 40
0.4000000000000341
 50
180.0
 51
270.0
  0
ARC
  5
F7
  8
0
  6
CONTINUOUS
 62
     7
 10
448.6786190926
 20
121.6111008672
 30
0.0
 40
0.4000000000000199
 50
270.0
 51
0.0
  0
LINE
  5
F8
  8
0
  6
CONTINUOUS
 62
     7
 10
448.6786282478
 20
121.2111016778
 30
0.0
 11
363.8786232887
 21
121.2111016778
 31
0.0
  0
LINE
  5
F9
  8
0
  6
CONTINUOUS
 62
     7
 10
362.4786174713
 20
128.0111035375
 30
0.0
 11
362.4786174713
 21
123.2110997705
 31
0.0
  0
LINE
  5
FA
  8
0
  6
CONTINUOUS
 62
     7
 10
450.0786221443
 20
128.0111035375
 30
0.0
 11
450.0786221443
 21
123.2110997705
 31
0.0
  0
LINE
  5
FB
  8
0
  6
CONTINUOUS
 62
     7
 10
27.4786150871
 20
108.6259385613
 30
0.0
 11
27.4786150871
 21
190.5560573606
 31
0.0
  0
LINE
  5
FC
  8
0
  6
CONTINUOUS
 62
     7
 10
113.0786216675
 20
190.5560573606
 30
0.0
 11
113.0786216675
 21
108.6259385613
 31
0.0
  0
LINE
  5
FD
  8
0
  6
CONTINUOUS
 62
     7
 10
113.0786216675
 20
108.6259385613
 30
0.0
 11
113.0786216675
 21
107.9984149007
 31
0.0
  0
LINE
  5
FE
  8
0
  6
CONTINUOUS
 62
     7
 10
27.4786150871
 20
107.9984149007
 30
0.0
 11
27.4786150871
 21
108.6259385613
 31
0.0
  0
LINE
  5
FF
  8
0
  6
CONTINUOUS
 62
     7
 10
114.0786207138
 20
123.220231202
 30
0.0
 11
114.0786207138
 21
123.2110997705
 31
0.0
  0
LINE
  5
100
  8
0
  6
CONTINUOUS
 62
     7
 10
114.0786207138
 20
128.0111035375
 30
0.0
 11
114.0786207138
 21
123.220231202
 31
0.0
  0
LINE
  5
101
  8
0
  6
CONTINUOUS
 62
     7
 10
26.4786160408
 20
123.220231202
 30
0.0
 11
26.4786160408
 21
123.2110997705
 31
0.0
  0
LINE
  5
102
  8
0
  6
CONTINUOUS
 62
     7
 10
26.4786160408
 20
128.0111035375
 30
0.0
 11
26.4786160408
 21
123.220231202
 31
0.0
  0
LINE
  5
103
  8
0
  6
CONTINUOUS
 62
     7
 10
27.4786150871
 20
190.5560573606
 30
0.0
 11
27.4786150871
 21
194.2160328893
 31
0.0
  0
LINE
  5
104
  8
0
  6
CONTINUOUS
 62
     7
 10
113.0786216675
 20
194.2160328893
 30
0.0
 11
113.0786216675
 21
190.5560573606
 31
0.0
  0
LINE
  5
105
  8
0
  6
CONTINUOUS
 62
     7
 10
27.4786150871
 20
121.5118011502
 30
0.0
 11
27.3786223351
 21
121.5118011502
 31
0.0
  0
LINE
  5
106
  8
0
  6
CONTINUOUS
 62
     7
 10
113.1786144196
 20
121.5118011502
 30
0.0
 11
113.0786216675
 21
121.5118011502
 31
0.0
  0
LINE
  5
107
  8
0
  6
CONTINUOUS
 62
     7
 10
113.1786144196
 20
121.5118011502
 30
0.0
 11
113.1786144196
 21
121.1457451848
 31
0.0
  0
LINE
  5
108
  8
0
  6
CONTINUOUS
 62
     7
 10
27.3786223351
 20
121.5118011502
 30
0.0
 11
27.3786223351
 21
121.1457451848
 31
0.0
  0
LINE
  5
109
  8
0
  6
CONTINUOUS
 62
     7
 10
113.1786144196
 20
194.6324905423
 30
0.0
 11
112.7212918221
 21
194.6324905423
 31
0.0
  0
LINE
  5
10A
  8
0
  6
CONTINUOUS
 62
     7
 10
113.1786144196
 20
194.6324905423
 30
0.0
 11
113.1786144196
 21
128.0111035375
 31
0.0
  0
LINE
  5
10B
  8
0
  6
CONTINUOUS
 62
     7
 10
113.1786144196
 20
123.2110997705
 30
0.0
 11
113.1786144196
 21
121.5118011502
 31
0.0
  0
LINE
  5
10C
  8
0
  6
CONTINUOUS
 62
     7
 10
27.3786223351
 20
194.6324905423
 30
0.0
 11
27.3786223351
 21
128.0111035375
 31
0.0
  0
LINE
  5
10D
  8
0
  6
CONTINUOUS
 62
     7
 10
27.3786223351
 20
123.2110997705
 30
0.0
 11
27.3786223351
 21
121.5118011502
 31
0.0
  0
LINE
  5
10E
  8
0
  6
CONTINUOUS
 62
     7
 10
27.8359330116
 20
194.6324905423
 30
0.0
 11
27.3786223351
 21
194.6324905423
 31
0.0
  0
LINE
  5
10F
  8
0
  6
CONTINUOUS
 62
     7
 10
27.3786223351
 20
121.1457451848
 30
0.0
 11
27.3877537666
 21
121.1366137532
 31
0.0
  0
LINE
  5
110
  8
0
  6
CONTINUOUS
 62
     7
 10
113.1786144196
 20
121.1457451848
 30
0.0
 11
113.169482988
 21
121.1366137532
 31
0.0
  0
LINE
  5
111
  8
0
  6
CONTINUOUS
 62
     7
 10
113.0786216675
 20
194.2347725896
 30
0.0
 11
113.0786216675
 21
194.2160328893
 31
0.0
  0
LINE
  5
112
  8
0
  6
CONTINUOUS
 62
     7
 10
27.4786150871
 20
194.2160328893
 30
0.0
 11
27.4786150871
 21
194.2347725896
 31
0.0
  0
LINE
  5
113
  8
0
  6
CONTINUOUS
 62
     7
 10
139.4786215244
 20
108.6259385613
 30
0.0
 11
139.4786215244
 21
190.5560573606
 31
0.0
  0
LINE
  5
114
  8
0
  6
CONTINUOUS
 62
     7
 10
225.0786191641
 20
190.5560573606
 30
0.0
 11
225.0786191641
 21
108.6259385613
 31
0.0
  0
LINE
  5
115
  8
0
  6
CONTINUOUS
 62
     7
 10
139.4786215244
 20
107.9984149007
 30
0.0
 11
139.4786215244
 21
108.6259385613
 31
0.0
  0
LINE
  5
116
  8
0
  6
CONTINUOUS
 62
     7
 10
225.0786191641
 20
108.6259385613
 30
0.0
 11
225.0786191641
 21
107.9984149007
 31
0.0
  0
LINE
  5
117
  8
0
  6
CONTINUOUS
 62
     7
 10
226.0786189555
 20
123.220231202
 30
0.0
 11
226.0786189555
 21
123.2110997705
 31
0.0
  0
LINE
  5
118
  8
0
  6
CONTINUOUS
 62
     7
 10
226.0786189555
 20
128.0111035375
 30
0.0
 11
226.0786189555
 21
123.220231202
 31
0.0
  0
LINE
  5
119
  8
0
  6
CONTINUOUS
 62
     7
 10
138.4786165176
 20
123.220231202
 30
0.0
 11
138.4786165176
 21
123.2110997705
 31
0.0
  0
LINE
  5
11A
  8
0
  6
CONTINUOUS
 62
     7
 10
138.4786165176
 20
128.0111035375
 30
0.0
 11
138.4786165176
 21
123.220231202
 31
0.0
  0
LINE
  5
11B
  8
0
  6
CONTINUOUS
 62
     7
 10
225.0786191641
 20
194.2160328893
 30
0.0
 11
225.0786191641
 21
190.5560573606
 31
0.0
  0
LINE
  5
11C
  8
0
  6
CONTINUOUS
 62
     7
 10
139.4786215244
 20
190.5560573606
 30
0.0
 11
139.4786215244
 21
194.2160328893
 31
0.0
  0
LINE
  5
11D
  8
0
  6
CONTINUOUS
 62
     7
 10
139.4786215244
 20
121.5118011502
 30
0.0
 11
139.3786168514
 21
121.5118011502
 31
0.0
  0
LINE
  5
11E
  8
0
  6
CONTINUOUS
 62
     7
 10
225.1786193667
 20
121.5118011502
 30
0.0
 11
225.0786191641
 21
121.5118011502
 31
0.0
  0
LINE
  5
11F
  8
0
  6
CONTINUOUS
 62
     7
 10
225.1786193667
 20
121.5118011502
 30
0.0
 11
225.1786193667
 21
121.1457451848
 31
0.0
  0
LINE
  5
120
  8
0
  6
CONTINUOUS
 62
     7
 10
139.3786168514
 20
121.5118011502
 30
0.0
 11
139.3786168514
 21
121.1457451848
 31
0.0
  0
LINE
  5
121
  8
0
  6
CONTINUOUS
 62
     7
 10
139.8359394489
 20
194.6324905423
 30
0.0
 11
139.3786168514
 21
194.6324905423
 31
0.0
  0
LINE
  5
122
  8
0
  6
CONTINUOUS
 62
     7
 10
139.3786168514
 20
194.6324905423
 30
0.0
 11
139.3786168514
 21
128.0111035375
 31
0.0
  0
LINE
  5
123
  8
0
  6
CONTINUOUS
 62
     7
 10
139.3786168514
 20
123.2110997705
 30
0.0
 11
139.3786168514
 21
121.5118011502
 31
0.0
  0
LINE
  5
124
  8
0
  6
CONTINUOUS
 62
     7
 10
225.1786193667
 20
194.6324905423
 30
0.0
 11
224.7212967692
 21
194.6324905423
 31
0.0
  0
LINE
  5
125
  8
0
  6
CONTINUOUS
 62
     7
 10
225.1786193667
 20
194.6324905423
 30
0.0
 11
225.1786193667
 21
128.0111035375
 31
0.0
  0
LINE
  5
126
  8
0
  6
CONTINUOUS
 62
     7
 10
225.1786193667
 20
123.2110997705
 30
0.0
 11
225.1786193667
 21
121.5118011502
 31
0.0
  0
LINE
  5
127
  8
0
  6
CONTINUOUS
 62
     7
 10
225.1786193667
 20
121.1457451848
 30
0.0
 11
225.169486445
 21
121.1366137532
 31
0.0
  0
LINE
  5
128
  8
0
  6
CONTINUOUS
 62
     7
 10
139.3786168514
 20
121.1457451848
 30
0.0
 11
139.3877542435
 21
121.1366137532
 31
0.0
  0
LINE
  5
129
  8
0
  6
CONTINUOUS
 62
     7
 10
225.0786191641
 20
194.2347725896
 30
0.0
 11
225.0786191641
 21
194.2160328893
 31
0.0
  0
LINE
  5
12A
  8
0
  6
CONTINUOUS
 62
     7
 10
139.4786215244
 20
194.2160328893
 30
0.0
 11
139.4786215244
 21
194.2347725896
 31
0.0
  0
LINE
  5
12B
  8
0
  6
CONTINUOUS
 62
     7
 10
251.478619021
 20
108.6259385613
 30
0.0
 11
251.478619021
 21
190.5560573606
 31
0.0
  0
LINE
  5
12C
  8
0
  6
CONTINUOUS
 62
     7
 10
337.0786166607
 20
190.5560573606
 30
0.0
 11
337.0786166607
 21
108.6259385613
 31
0.0
  0
LINE
  5
12D
  8
0
  6
CONTINUOUS
 62
     7
 10
251.478619021
 20
107.9984149007
 30
0.0
 11
251.478619021
 21
108.6259385613
 31
0.0
  0
LINE
  5
12E
  8
0
  6
CONTINUOUS
 62
     7
 10
337.0786166607
 20
108.6259385613
 30
0.0
 11
337.0786166607
 21
107.9984149007
 31
0.0
  0
LINE
  5
12F
  8
0
  6
CONTINUOUS
 62
     7
 10
250.4786192297
 20
123.220231202
 30
0.0
 11
250.4786192297
 21
123.2110997705
 31
0.0
  0
LINE
  5
130
  8
0
  6
CONTINUOUS
 62
     7
 10
250.4786192297
 20
128.0111035375
 30
0.0
 11
250.4786192297
 21
123.220231202
 31
0.0
  0
LINE
  5
131
  8
0
  6
CONTINUOUS
 62
     7
 10
338.0786216675
 20
123.220231202
 30
0.0
 11
338.0786216675
 21
123.2110997705
 31
0.0
  0
LINE
  5
132
  8
0
  6
CONTINUOUS
 62
     7
 10
338.0786216675
 20
128.0111035375
 30
0.0
 11
338.0786216675
 21
123.220231202
 31
0.0
  0
LINE
  5
133
  8
0
  6
CONTINUOUS
 62
     7
 10
337.0786166607
 20
194.2160328893
 30
0.0
 11
337.0786166607
 21
190.5560573606
 31
0.0
  0
LINE
  5
134
  8
0
  6
CONTINUOUS
 62
     7
 10
251.478619021
 20
190.5560573606
 30
0.0
 11
251.478619021
 21
194.2160328893
 31
0.0
  0
LINE
  5
135
  8
0
  6
CONTINUOUS
 62
     7
 10
251.478619021
 20
121.5118011502
 30
0.0
 11
251.3786188184
 21
121.5118011502
 31
0.0
  0
LINE
  5
136
  8
0
  6
CONTINUOUS
 62
     7
 10
337.1786213337
 20
121.5118011502
 30
0.0
 11
337.0786166607
 21
121.5118011502
 31
0.0
  0
LINE
  5
137
  8
0
  6
CONTINUOUS
 62
     7
 10
337.1786213337
 20
121.5118011502
 30
0.0
 11
337.1786213337
 21
121.1457451848
 31
0.0
  0
LINE
  5
138
  8
0
  6
CONTINUOUS
 62
     7
 10
251.3786188184
 20
121.5118011502
 30
0.0
 11
251.3786188184
 21
121.1457451848
 31
0.0
  0
LINE
  5
139
  8
0
  6
CONTINUOUS
 62
     7
 10
251.3786188184
 20
194.6324905423
 30
0.0
 11
251.3786188184
 21
128.0111035375
 31
0.0
  0
LINE
  5
13A
  8
0
  6
CONTINUOUS
 62
     7
 10
251.3786188184
 20
123.2110997705
 30
0.0
 11
251.3786188184
 21
121.5118011502
 31
0.0
  0
LINE
  5
13B
  8
0
  6
CONTINUOUS
 62
     7
 10
251.8359414159
 20
194.6324905423
 30
0.0
 11
251.3786188184
 21
194.6324905423
 31
0.0
  0
LINE
  5
13C
  8
0
  6
CONTINUOUS
 62
     7
 10
337.1786213337
 20
194.6324905423
 30
0.0
 11
336.7212987362
 21
194.6324905423
 31
0.0
  0
LINE
  5
13D
  8
0
  6
CONTINUOUS
 62
     7
 10
337.1786213337
 20
194.6324905423
 30
0.0
 11
337.1786213337
 21
128.0111035375
 31
0.0
  0
LINE
  5
13E
  8
0
  6
CONTINUOUS
 62
     7
 10
337.1786213337
 20
123.2110997705
 30
0.0
 11
337.1786213337
 21
121.5118011502
 31
0.0
  0
LINE
  5
13F
  8
0
  6
CONTINUOUS
 62
     7
 10
251.3786188184
 20
121.1457451848
 30
0.0
 11
251.3877517401
 21
121.1366137532
 31
0.0
  0
LINE
  5
140
  8
0
  6
CONTINUOUS
 62
     7
 10
337.1786213337
 20
121.1457451848
 30
0.0
 11
337.1694839417
 21
121.1366137532
 31
0.0
  0
LINE
  5
141
  8
0
  6
CONTINUOUS
 62
     7
 10
337.0786166607
 20
194.2347725896
 30
0.0
 11
337.0786166607
 21
194.2160328893
 31
0.0
  0
LINE
  5
142
  8
0
  6
CONTINUOUS
 62
     7
 10
251.478619021
 20
194.2160328893
 30
0.0
 11
251.478619021
 21
194.2347725896
 31
0.0
  0
LINE
  5
143
  8
0
  6
CONTINUOUS
 62
     7
 10
338.9786160408
 20
108.4110995797
 30
0.0
 11
338.17862038
 21
108.4110995797
 31
0.0
  0
LINE
  5
144
  8
0
  6
CONTINUOUS
 62
     7
 10
338.17862038
 20
108.4110995797
 30
0.0
 11
338.17862038
 21
109.2808267144
 31
0.0
  0
LINE
  5
145
  8
0
  6
CONTINUOUS
 62
     7
 10
250.378619027
 20
109.2808267144
 30
0.0
 11
250.378619027
 21
108.4110995797
 31
0.0
  0
LINE
  5
146
  8
0
  6
CONTINUOUS
 62
     7
 10
250.378619027
 20
108.4110995797
 30
0.0
 11
249.5786188959
 21
108.4110995797
 31
0.0
  0
LINE
  5
147
  8
0
  6
CONTINUOUS
 62
     7
 10
249.5786188959
 20
108.4110995797
 30
0.0
 11
249.5786188959
 21
109.2808267144
 31
0.0
  0
LINE
  5
148
  8
0
  6
CONTINUOUS
 62
     7
 10
250.378619027
 20
109.2808267144
 30
0.0
 11
250.378619027
 21
190.2366599111
 31
0.0
  0
LINE
  5
149
  8
0
  6
CONTINUOUS
 62
     7
 10
249.5786188959
 20
109.2808267144
 30
0.0
 11
249.5786188959
 21
190.2366599111
 31
0.0
  0
LINE
  5
14A
  8
0
  6
CONTINUOUS
 62
     7
 10
338.17862038
 20
190.2366599111
 30
0.0
 11
338.17862038
 21
109.2808267144
 31
0.0
  0
LINE
  5
14B
  8
0
  6
CONTINUOUS
 62
     7
 10
250.378619027
 20
190.8919772176
 30
0.0
 11
250.378619027
 21
190.2366599111
 31
0.0
  0
LINE
  5
14C
  8
0
  6
CONTINUOUS
 62
     7
 10
249.5786188959
 20
190.2366599111
 30
0.0
 11
249.5786188959
 21
190.8919772176
 31
0.0
  0
LINE
  5
14D
  8
0
  6
CONTINUOUS
 62
     7
 10
338.17862038
 20
190.2366599111
 30
0.0
 11
338.17862038
 21
190.8919772176
 31
0.0
  0
LINE
  5
14E
  8
0
  6
CONTINUOUS
 62
     7
 10
338.17862038
 20
194.1212257413
 30
0.0
 11
338.17862038
 21
190.8919772176
 31
0.0
  0
LINE
  5
14F
  8
0
  6
CONTINUOUS
 62
     7
 10
250.378619027
 20
190.8919772176
 30
0.0
 11
250.378619027
 21
194.1212257413
 31
0.0
  0
LINE
  5
150
  8
0
  6
CONTINUOUS
 62
     7
 10
249.5786188959
 20
190.8919772176
 30
0.0
 11
249.5786188959
 21
194.1212257413
 31
0.0
  0
LINE
  5
151
  8
0
  6
CONTINUOUS
 62
     7
 10
338.17862038
 20
194.1212257413
 30
0.0
 11
338.17862038
 21
194.1961726216
 31
0.0
  0
LINE
  5
152
  8
0
  6
CONTINUOUS
 62
     7
 10
250.378619027
 20
194.1961726216
 30
0.0
 11
250.378619027
 21
194.1212257413
 31
0.0
  0
LINE
  5
153
  8
0
  6
CONTINUOUS
 62
     7
 10
249.5786188959
 20
194.1212257413
 30
0.0
 11
249.5786188959
 21
194.1961726216
 31
0.0
  0
LINE
  5
154
  8
0
  6
CONTINUOUS
 62
     7
 10
250.4786192297
 20
130.8059295682
 30
0.0
 11
250.4786192297
 21
243.375929263
 31
0.0
  0
POLYLINE
  5
155
  8
0
  6
CONTINUOUS
 62
     7
 66
     1
 10
0.0
 20
0.0
 30
0.0
  0
VERTEX
  5
54E
  8
0
  6
CONTINUOUS
 62
     7
 10
250.4786192297
 20
243.375929263
 30
0.0
  0
VERTEX
  5
54F
  8
0
  6
CONTINUOUS
 62
     7
 10
250.5090034424
 20
243.375929263
 30
0.0
  0
VERTEX
  5
550
  8
0
  6
CONTINUOUS
 62
     7
 10
250.5992336987
 20
243.3153947858
 30
0.0
  0
VERTEX
  5
551
  8
0
  6
CONTINUOUS
 62
     7
 10
250.746568185
 20
243.1961616544
 30
0.0
  0
VERTEX
  5
552
  8
0
  6
CONTINUOUS
 62
     7
 10
250.9465298472
 20
243.0218419103
 30
0.0
  0
VERTEX
  5
553
  8
0
  6
CONTINUOUS
 62
     7
 10
251.1930442272
 20
242.7977522878
 30
0.0
  0
VERTEX
  5
554
  8
0
  6
CONTINUOUS
 62
     7
 10
251.478619021
 20
242.5306877164
 30
0.0
  0
VERTEX
  5
555
  8
0
  6
CONTINUOUS
 62
     7
 10
251.7945787726
 20
242.2287782697
 30
0.0
  0
VERTEX
  5
556
  8
0
  6
CONTINUOUS
 62
     7
 10
252.1313226639
 20
241.9011792211
 30
0.0
  0
VERTEX
  5
557
  8
0
  6
CONTINUOUS
 62
     7
 10
252.4786195575
 20
241.5578564672
 30
0.0
  0
SEQEND
  5
627
  8
0
  6
CONTINUOUS
 62
     7
  0
ARC
  5
156
  8
0
  6
CONTINUOUS
 62
     7
 10
256.612579531
 20
126.418350114
 30
0.0
 40
7.54163924129444
 50
133.9482492279
 51
144.424121265
  0
POLYLINE
  5
157
  8
0
  6
CONTINUOUS
 62
     7
 66
     1
 10
0.0
 20
0.0
 30
0.0
  0
VERTEX
  5
558
  8
0
  6
CONTINUOUS
 62
     7
 10
336.0786176144
 20
241.5578564672
 30
0.0
  0
VERTEX
  5
559
  8
0
  6
CONTINUOUS
 62
     7
 10
336.4259159981
 20
241.9011792211
 30
0.0
  0
VERTEX
  5
55A
  8
0
  6
CONTINUOUS
 62
     7
 10
336.7626583992
 20
242.2287782697
 30
0.0
  0
VERTEX
  5
55B
  8
0
  6
CONTINUOUS
 62
     7
 10
337.0786166607
 20
242.5306877164
 30
0.0
  0
VERTEX
  5
55C
  8
0
  6
CONTINUOUS
 62
     7
 10
337.3641944347
 20
242.7977522878
 30
0.0
  0
VERTEX
  5
55D
  8
0
  6
CONTINUOUS
 62
     7
 10
337.6107073246
 20
243.0218419103
 30
0.0
  0
VERTEX
  5
55E
  8
0
  6
CONTINUOUS
 62
     7
 10
337.8106689869
 20
243.1961616544
 30
0.0
  0
VERTEX
  5
55F
  8
0
  6
CONTINUOUS
 62
     7
 10
337.9580057083
 20
243.3153947858
 30
0.0
  0
VERTEX
  5
560
  8
0
  6
CONTINUOUS
 62
     7
 10
338.0482352196
 20
243.375929263
 30
0.0
  0
VERTEX
  5
561
  8
0
  6
CONTINUOUS
 62
     7
 10
338.0786216675
 20
243.375929263
 30
0.0
  0
SEQEND
  5
626
  8
0
  6
CONTINUOUS
 62
     7
  0
LINE
  5
158
  8
0
  6
CONTINUOUS
 62
     7
 10
338.0786216675
 20
243.375929263
 30
0.0
 11
338.0786216675
 21
243.1162437467
 31
0.0
  0
LINE
  5
159
  8
0
  6
CONTINUOUS
 62
     7
 10
338.0786216675
 20
194.2435106305
 30
0.0
 11
338.0786216675
 21
130.8059295682
 31
0.0
  0
ARC
  5
15A
  8
0
  6
CONTINUOUS
 62
     7
 10
331.9440767686
 20
126.4178415146
 30
0.0
 40
7.542410614845658
 50
35.5764375294
 51
46.051238904
  0
LINE
  5
15B
  8
0
  6
CONTINUOUS
 62
     7
 10
250.4786192297
 20
130.405010846
 30
0.0
 11
251.3786188184
 21
130.405010846
 31
0.0
  0
LINE
  5
15C
  8
0
  6
CONTINUOUS
 62
     7
 10
337.1786213337
 20
130.405010846
 30
0.0
 11
338.0786216675
 21
130.405010846
 31
0.0
  0
LINE
  5
15D
  8
0
  6
CONTINUOUS
 62
     7
 10
338.0786216675
 20
130.8059295682
 30
0.0
 11
338.0786216675
 21
130.405010846
 31
0.0
  0
LINE
  5
15E
  8
0
  6
CONTINUOUS
 62
     7
 10
250.4786192297
 20
130.8059295682
 30
0.0
 11
250.4786192297
 21
130.405010846
 31
0.0
  0
LINE
  5
15F
  8
0
  6
CONTINUOUS
 62
     7
 10
250.378619027
 20
243.0746277837
 30
0.0
 11
250.378619027
 21
194.1961726216
 31
0.0
  0
LINE
  5
160
  8
0
  6
CONTINUOUS
 62
     7
 10
250.4786192297
 20
243.0746277837
 30
0.0
 11
250.378619027
 21
243.0746277837
 31
0.0
  0
LINE
  5
161
  8
0
  6
CONTINUOUS
 62
     7
 10
251.3786188184
 20
128.8110991982
 30
0.0
 11
250.378619027
 21
128.8110991982
 31
0.0
  0
LINE
  5
162
  8
0
  6
CONTINUOUS
 62
     7
 10
338.17862038
 20
128.8110991982
 30
0.0
 11
337.1786213337
 21
128.8110991982
 31
0.0
  0
LINE
  5
163
  8
0
  6
CONTINUOUS
 62
     7
 10
249.5786188959
 20
110.4111036328
 30
0.0
 11
249.1786188303
 21
110.4111036328
 31
0.0
  0
LINE
  5
164
  8
0
  6
CONTINUOUS
 62
     7
 10
249.1786188303
 20
190.4110988645
 30
0.0
 11
249.5786188959
 21
190.4110988645
 31
0.0
  0
LINE
  5
165
  8
0
  6
CONTINUOUS
 62
     7
 10
114.9786150871
 20
108.4110995797
 30
0.0
 11
114.1786134659
 21
108.4110995797
 31
0.0
  0
LINE
  5
166
  8
0
  6
CONTINUOUS
 62
     7
 10
114.1786134659
 20
108.4110995797
 30
0.0
 11
114.1786134659
 21
109.2808267144
 31
0.0
  0
LINE
  5
167
  8
0
  6
CONTINUOUS
 62
     7
 10
26.3786232887
 20
108.4110995797
 30
0.0
 11
25.5786097466
 21
108.4110995797
 31
0.0
  0
LINE
  5
168
  8
0
  6
CONTINUOUS
 62
     7
 10
26.3786232887
 20
109.2808267144
 30
0.0
 11
26.3786232887
 21
108.4110995797
 31
0.0
  0
LINE
  5
169
  8
0
  6
CONTINUOUS
 62
     7
 10
114.1786134659
 20
190.2366599111
 30
0.0
 11
114.1786134659
 21
109.2808267144
 31
0.0
  0
LINE
  5
16A
  8
0
  6
CONTINUOUS
 62
     7
 10
26.3786232887
 20
109.2808267144
 30
0.0
 11
26.3786232887
 21
190.2366599111
 31
0.0
  0
LINE
  5
16B
  8
0
  6
CONTINUOUS
 62
     7
 10
114.1786134659
 20
190.2366599111
 30
0.0
 11
114.1786134659
 21
190.8919772176
 31
0.0
  0
LINE
  5
16C
  8
0
  6
CONTINUOUS
 62
     7
 10
26.3786232887
 20
190.8919772176
 30
0.0
 11
26.3786232887
 21
190.2366599111
 31
0.0
  0
LINE
  5
16D
  8
0
  6
CONTINUOUS
 62
     7
 10
26.3786232887
 20
190.8919772176
 30
0.0
 11
26.3786232887
 21
194.1212257413
 31
0.0
  0
LINE
  5
16E
  8
0
  6
CONTINUOUS
 62
     7
 10
114.1786134659
 20
194.1212257413
 30
0.0
 11
114.1786134659
 21
190.8919772176
 31
0.0
  0
LINE
  5
16F
  8
0
  6
CONTINUOUS
 62
     7
 10
114.1786134659
 20
194.1212257413
 30
0.0
 11
114.1786134659
 21
194.1961726216
 31
0.0
  0
LINE
  5
170
  8
0
  6
CONTINUOUS
 62
     7
 10
26.3786232887
 20
194.1961726216
 30
0.0
 11
26.3786232887
 21
194.1212257413
 31
0.0
  0
ARC
  5
171
  8
0
  6
CONTINUOUS
 62
     7
 10
107.9466214325
 20
126.4200099821
 30
0.0
 40
7.539078577772176
 50
35.574289128
 51
46.0537627153
  0
ARC
  5
172
  8
0
  6
CONTINUOUS
 62
     7
 10
32.6116398511
 20
126.4191251946
 30
0.0
 40
7.540426623807832
 50
133.9471766425
 51
144.4247715143
  0
POLYLINE
  5
173
  8
0
  6
CONTINUOUS
 62
     7
 66
     1
 10
0.0
 20
0.0
 30
0.0
  0
VERTEX
  5
562
  8
0
  6
CONTINUOUS
 62
     7
 10
112.0786226212
 20
241.5578564672
 30
0.0
  0
VERTEX
  5
563
  8
0
  6
CONTINUOUS
 62
     7
 10
112.4259150444
 20
241.9011792211
 30
0.0
  0
VERTEX
  5
564
  8
0
  6
CONTINUOUS
 62
     7
 10
112.7626574455
 20
242.2287782697
 30
0.0
  0
VERTEX
  5
565
  8
0
  6
CONTINUOUS
 62
     7
 10
113.0786216675
 20
242.5306877164
 30
0.0
  0
VERTEX
  5
566
  8
0
  6
CONTINUOUS
 62
     7
 10
113.3641994415
 20
242.7977522878
 30
0.0
  0
VERTEX
  5
567
  8
0
  6
CONTINUOUS
 62
     7
 10
113.6107123314
 20
243.0218419103
 30
0.0
  0
VERTEX
  5
568
  8
0
  6
CONTINUOUS
 62
     7
 10
113.8106739937
 20
243.1961616544
 30
0.0
  0
VERTEX
  5
569
  8
0
  6
CONTINUOUS
 62
     7
 10
113.9580047546
 20
243.3153947858
 30
0.0
  0
VERTEX
  5
56A
  8
0
  6
CONTINUOUS
 62
     7
 10
114.0482342659
 20
243.375929263
 30
0.0
  0
VERTEX
  5
56B
  8
0
  6
CONTINUOUS
 62
     7
 10
114.0786207138
 20
243.375929263
 30
0.0
  0
SEQEND
  5
625
  8
0
  6
CONTINUOUS
 62
     7
  0
LINE
  5
174
  8
0
  6
CONTINUOUS
 62
     7
 10
114.0786207138
 20
243.375929263
 30
0.0
 11
114.0786207138
 21
243.1162437467
 31
0.0
  0
LINE
  5
175
  8
0
  6
CONTINUOUS
 62
     7
 10
114.0786207138
 20
194.2435106305
 30
0.0
 11
114.0786207138
 21
130.8059295682
 31
0.0
  0
LINE
  5
176
  8
0
  6
CONTINUOUS
 62
     7
 10
26.4786160408
 20
130.8059295682
 30
0.0
 11
26.4786160408
 21
243.375929263
 31
0.0
  0
POLYLINE
  5
177
  8
0
  6
CONTINUOUS
 62
     7
 66
     1
 10
0.0
 20
0.0
 30
0.0
  0
VERTEX
  5
56C
  8
0
  6
CONTINUOUS
 62
     7
 10
26.4786160408
 20
243.375929263
 30
0.0
  0
VERTEX
  5
56D
  8
0
  6
CONTINUOUS
 62
     7
 10
26.5090144096
 20
243.375929263
 30
0.0
  0
VERTEX
  5
56E
  8
0
  6
CONTINUOUS
 62
     7
 10
26.599232
 20
243.3153947858
 30
0.0
  0
VERTEX
  5
56F
  8
0
  6
CONTINUOUS
 62
     7
 10
26.7465746819
 20
243.1961616544
 30
0.0
  0
VERTEX
  5
570
  8
0
  6
CONTINUOUS
 62
     7
 10
26.9465363441
 20
243.0218419103
 30
0.0
  0
VERTEX
  5
571
  8
0
  6
CONTINUOUS
 62
     7
 10
27.1930373131
 20
242.7977522878
 30
0.0
  0
VERTEX
  5
572
  8
0
  6
CONTINUOUS
 62
     7
 10
27.4786150871
 20
242.5306877164
 30
0.0
  0
VERTEX
  5
573
  8
0
  6
CONTINUOUS
 62
     7
 10
27.7945673882
 20
242.2287782697
 30
0.0
  0
VERTEX
  5
574
  8
0
  6
CONTINUOUS
 62
     7
 10
28.1313336311
 20
241.9011792211
 30
0.0
  0
VERTEX
  5
575
  8
0
  6
CONTINUOUS
 62
     7
 10
28.4786141335
 20
241.5578564672
 30
0.0
  0
SEQEND
  5
624
  8
0
  6
CONTINUOUS
 62
     7
  0
LINE
  5
178
  8
0
  6
CONTINUOUS
 62
     7
 10
26.4786160408
 20
130.405010846
 30
0.0
 11
27.3786223351
 21
130.405010846
 31
0.0
  0
LINE
  5
179
  8
0
  6
CONTINUOUS
 62
     7
 10
113.1786144196
 20
130.405010846
 30
0.0
 11
114.0786207138
 21
130.405010846
 31
0.0
  0
LINE
  5
17A
  8
0
  6
CONTINUOUS
 62
     7
 10
114.0786207138
 20
130.8059295682
 30
0.0
 11
114.0786207138
 21
130.405010846
 31
0.0
  0
LINE
  5
17B
  8
0
  6
CONTINUOUS
 62
     7
 10
26.4786160408
 20
130.8059295682
 30
0.0
 11
26.4786160408
 21
130.405010846
 31
0.0
  0
LINE
  5
17C
  8
0
  6
CONTINUOUS
 62
     7
 10
26.3786232887
 20
243.0746277837
 30
0.0
 11
26.3786232887
 21
194.1961726216
 31
0.0
  0
LINE
  5
17D
  8
0
  6
CONTINUOUS
 62
     7
 10
26.4786160408
 20
243.0746277837
 30
0.0
 11
26.3786232887
 21
243.0746277837
 31
0.0
  0
LINE
  5
17E
  8
0
  6
CONTINUOUS
 62
     7
 10
27.3786223351
 20
128.8110991982
 30
0.0
 11
26.3786232887
 21
128.8110991982
 31
0.0
  0
LINE
  5
17F
  8
0
  6
CONTINUOUS
 62
     7
 10
114.1786134659
 20
128.8110991982
 30
0.0
 11
113.1786144196
 21
128.8110991982
 31
0.0
  0
LINE
  5
180
  8
0
  6
CONTINUOUS
 62
     7
 10
362.3786247192
 20
108.4110995797
 30
0.0
 11
361.578623098
 21
108.4110995797
 31
0.0
  0
LINE
  5
181
  8
0
  6
CONTINUOUS
 62
     7
 10
361.578623098
 20
108.4110995797
 30
0.0
 11
361.578623098
 21
109.2808267144
 31
0.0
  0
LINE
  5
182
  8
0
  6
CONTINUOUS
 62
     7
 10
362.3786247192
 20
109.2808267144
 30
0.0
 11
362.3786247192
 21
108.4110995797
 31
0.0
  0
LINE
  5
183
  8
0
  6
CONTINUOUS
 62
     7
 10
450.9786284386
 20
108.4110995797
 30
0.0
 11
450.1786148964
 21
108.4110995797
 31
0.0
  0
LINE
  5
184
  8
0
  6
CONTINUOUS
 62
     7
 10
450.1786148964
 20
108.4110995797
 30
0.0
 11
450.1786148964
 21
109.2808267144
 31
0.0
  0
LINE
  5
185
  8
0
  6
CONTINUOUS
 62
     7
 10
450.1786148964
 20
190.2366599111
 30
0.0
 11
450.1786148964
 21
109.2808267144
 31
0.0
  0
LINE
  5
186
  8
0
  6
CONTINUOUS
 62
     7
 10
361.578623098
 20
109.2808267144
 30
0.0
 11
361.578623098
 21
190.2366599111
 31
0.0
  0
LINE
  5
187
  8
0
  6
CONTINUOUS
 62
     7
 10
362.3786247192
 20
109.2808267144
 30
0.0
 11
362.3786247192
 21
190.2366599111
 31
0.0
  0
LINE
  5
188
  8
0
  6
CONTINUOUS
 62
     7
 10
450.1786148964
 20
190.2366599111
 30
0.0
 11
450.1786148964
 21
190.8919772176
 31
0.0
  0
LINE
  5
189
  8
0
  6
CONTINUOUS
 62
     7
 10
361.578623098
 20
190.2366599111
 30
0.0
 11
361.578623098
 21
190.8919772176
 31
0.0
  0
LINE
  5
18A
  8
0
  6
CONTINUOUS
 62
     7
 10
362.3786247192
 20
190.8919772176
 30
0.0
 11
362.3786247192
 21
190.2366599111
 31
0.0
  0
LINE
  5
18B
  8
0
  6
CONTINUOUS
 62
     7
 10
450.1786148964
 20
194.1212257413
 30
0.0
 11
450.1786148964
 21
190.8919772176
 31
0.0
  0
LINE
  5
18C
  8
0
  6
CONTINUOUS
 62
     7
 10
361.578623098
 20
190.8919772176
 30
0.0
 11
361.578623098
 21
194.1212257413
 31
0.0
  0
LINE
  5
18D
  8
0
  6
CONTINUOUS
 62
     7
 10
362.3786247192
 20
190.8919772176
 30
0.0
 11
362.3786247192
 21
194.1212257413
 31
0.0
  0
LINE
  5
18E
  8
0
  6
CONTINUOUS
 62
     7
 10
450.1786148964
 20
194.1212257413
 30
0.0
 11
450.1786148964
 21
194.1961726216
 31
0.0
  0
LINE
  5
18F
  8
0
  6
CONTINUOUS
 62
     7
 10
361.578623098
 20
194.1212257413
 30
0.0
 11
361.578623098
 21
194.1961726216
 31
0.0
  0
LINE
  5
190
  8
0
  6
CONTINUOUS
 62
     7
 10
362.3786247192
 20
194.1961726216
 30
0.0
 11
362.3786247192
 21
194.1212257413
 31
0.0
  0
LINE
  5
191
  8
0
  6
CONTINUOUS
 62
     7
 10
362.4786174713
 20
130.8059295682
 30
0.0
 11
362.4786174713
 21
243.375929263
 31
0.0
  0
POLYLINE
  5
192
  8
0
  6
CONTINUOUS
 62
     7
 66
     1
 10
0.0
 20
0.0
 30
0.0
  0
VERTEX
  5
576
  8
0
  6
CONTINUOUS
 62
     7
 10
362.4786174713
 20
243.375929263
 30
0.0
  0
VERTEX
  5
577
  8
0
  6
CONTINUOUS
 62
     7
 10
362.5090039192
 20
243.375929263
 30
0.0
  0
VERTEX
  5
578
  8
0
  6
CONTINUOUS
 62
     7
 10
362.5992334305
 20
243.3153947858
 30
0.0
  0
VERTEX
  5
579
  8
0
  6
CONTINUOUS
 62
     7
 10
362.7465641914
 20
243.1961616544
 30
0.0
  0
VERTEX
  5
57A
  8
0
  6
CONTINUOUS
 62
     7
 10
362.9465258537
 20
243.0218419103
 30
0.0
  0
VERTEX
  5
57B
  8
0
  6
CONTINUOUS
 62
     7
 10
363.1930387436
 20
242.7977522878
 30
0.0
  0
VERTEX
  5
57C
  8
0
  6
CONTINUOUS
 62
     7
 10
363.4786165176
 20
242.5306877164
 30
0.0
  0
VERTEX
  5
57D
  8
0
  6
CONTINUOUS
 62
     7
 10
363.7945807396
 20
242.2287782697
 30
0.0
  0
VERTEX
  5
57E
  8
0
  6
CONTINUOUS
 62
     7
 10
364.1313231407
 20
241.9011792211
 30
0.0
  0
VERTEX
  5
57F
  8
0
  6
CONTINUOUS
 62
     7
 10
364.478615564
 20
241.5578564672
 30
0.0
  0
SEQEND
  5
623
  8
0
  6
CONTINUOUS
 62
     7
  0
ARC
  5
193
  8
0
  6
CONTINUOUS
 62
     7
 10
368.6106167526
 20
126.4200099821
 30
0.0
 40
7.539078577772201
 50
133.9462372847
 51
144.425710872
  0
ARC
  5
194
  8
0
  6
CONTINUOUS
 62
     7
 10
443.9455983341
 20
126.4191251946
 30
0.0
 40
7.540426623809056
 50
35.5752284857
 51
46.0528233575
  0
POLYLINE
  5
195
  8
0
  6
CONTINUOUS
 62
     7
 66
     1
 10
0.0
 20
0.0
 30
0.0
  0
VERTEX
  5
580
  8
0
  6
CONTINUOUS
 62
     7
 10
448.0786240517
 20
241.5578564672
 30
0.0
  0
VERTEX
  5
581
  8
0
  6
CONTINUOUS
 62
     7
 10
448.425904554
 20
241.9011792211
 30
0.0
  0
VERTEX
  5
582
  8
0
  6
CONTINUOUS
 62
     7
 10
448.762670797
 20
242.2287782697
 30
0.0
  0
VERTEX
  5
583
  8
0
  6
CONTINUOUS
 62
     7
 10
449.078623098
 20
242.5306877164
 30
0.0
  0
VERTEX
  5
584
  8
0
  6
CONTINUOUS
 62
     7
 10
449.364200872
 20
242.7977522878
 30
0.0
  0
VERTEX
  5
585
  8
0
  6
CONTINUOUS
 62
     7
 10
449.610701841
 20
243.0218419103
 30
0.0
  0
VERTEX
  5
586
  8
0
  6
CONTINUOUS
 62
     7
 10
449.8106635033
 20
243.1961616544
 30
0.0
  0
VERTEX
  5
587
  8
0
  6
CONTINUOUS
 62
     7
 10
449.9580061852
 20
243.3153947858
 30
0.0
  0
VERTEX
  5
588
  8
0
  6
CONTINUOUS
 62
     7
 10
450.0482237755
 20
243.375929263
 30
0.0
  0
VERTEX
  5
589
  8
0
  6
CONTINUOUS
 62
     7
 10
450.0786221443
 20
243.375929263
 30
0.0
  0
SEQEND
  5
622
  8
0
  6
CONTINUOUS
 62
     7
  0
LINE
  5
196
  8
0
  6
CONTINUOUS
 62
     7
 10
450.0786221443
 20
243.375929263
 30
0.0
 11
450.0786221443
 21
130.8059295682
 31
0.0
  0
LINE
  5
197
  8
0
  6
CONTINUOUS
 62
     7
 10
362.4786174713
 20
130.405010846
 30
0.0
 11
363.3786237656
 21
130.405010846
 31
0.0
  0
LINE
  5
198
  8
0
  6
CONTINUOUS
 62
     7
 10
449.1786158501
 20
130.405010846
 30
0.0
 11
450.0786221443
 21
130.405010846
 31
0.0
  0
LINE
  5
199
  8
0
  6
CONTINUOUS
 62
     7
 10
450.0786221443
 20
130.8059295682
 30
0.0
 11
450.0786221443
 21
130.405010846
 31
0.0
  0
LINE
  5
19A
  8
0
  6
CONTINUOUS
 62
     7
 10
362.4786174713
 20
130.8059295682
 30
0.0
 11
362.4786174713
 21
130.405010846
 31
0.0
  0
LINE
  5
19B
  8
0
  6
CONTINUOUS
 62
     7
 10
362.3786247192
 20
243.0746277837
 30
0.0
 11
362.3786247192
 21
194.1961726216
 31
0.0
  0
LINE
  5
19C
  8
0
  6
CONTINUOUS
 62
     7
 10
450.1786148964
 20
243.0746277837
 30
0.0
 11
450.0786221443
 21
243.0746277837
 31
0.0
  0
LINE
  5
19D
  8
0
  6
CONTINUOUS
 62
     7
 10
362.4786174713
 20
243.0746277837
 30
0.0
 11
362.3786247192
 21
243.0746277837
 31
0.0
  0
LINE
  5
19E
  8
0
  6
CONTINUOUS
 62
     7
 10
450.1786148964
 20
243.0746277837
 30
0.0
 11
450.1786148964
 21
194.1961726216
 31
0.0
  0
LINE
  5
19F
  8
0
  6
CONTINUOUS
 62
     7
 10
363.4786165176
 20
128.8110991982
 30
0.0
 11
362.3786247192
 21
128.8110991982
 31
0.0
  0
LINE
  5
1A0
  8
0
  6
CONTINUOUS
 62
     7
 10
450.1786148964
 20
128.8110991982
 30
0.0
 11
449.078623098
 21
128.8110991982
 31
0.0
  0
LINE
  5
1A1
  8
0
  6
CONTINUOUS
 62
     7
 10
361.578623098
 20
110.4111036328
 30
0.0
 11
361.1786163269
 21
110.4111036328
 31
0.0
  0
LINE
  5
1A2
  8
0
  6
CONTINUOUS
 62
     7
 10
361.1786163269
 20
190.4110988645
 30
0.0
 11
361.578623098
 21
190.4110988645
 31
0.0
  0
LINE
  5
1A3
  8
0
  6
CONTINUOUS
 62
     7
 10
138.3786178051
 20
108.4110995797
 30
0.0
 11
137.5786221443
 21
108.4110995797
 31
0.0
  0
LINE
  5
1A4
  8
0
  6
CONTINUOUS
 62
     7
 10
137.5786221443
 20
108.4110995797
 30
0.0
 11
137.5786221443
 21
109.2808267144
 31
0.0
  0
LINE
  5
1A5
  8
0
  6
CONTINUOUS
 62
     7
 10
138.3786178051
 20
109.2808267144
 30
0.0
 11
138.3786178051
 21
108.4110995797
 31
0.0
  0
LINE
  5
1A6
  8
0
  6
CONTINUOUS
 62
     7
 10
226.9786192893
 20
108.4110995797
 30
0.0
 11
226.1786191581
 21
108.4110995797
 31
0.0
  0
LINE
  5
1A7
  8
0
  6
CONTINUOUS
 62
     7
 10
226.1786191581
 20
108.4110995797
 30
0.0
 11
226.1786191581
 21
109.2808267144
 31
0.0
  0
LINE
  5
1A8
  8
0
  6
CONTINUOUS
 62
     7
 10
226.1786191581
 20
190.2366599111
 30
0.0
 11
226.1786191581
 21
109.2808267144
 31
0.0
  0
LINE
  5
1A9
  8
0
  6
CONTINUOUS
 62
     7
 10
137.5786221443
 20
109.2808267144
 30
0.0
 11
137.5786221443
 21
190.2366599111
 31
0.0
  0
LINE
  5
1AA
  8
0
  6
CONTINUOUS
 62
     7
 10
138.3786178051
 20
109.2808267144
 30
0.0
 11
138.3786178051
 21
190.2366599111
 31
0.0
  0
LINE
  5
1AB
  8
0
  6
CONTINUOUS
 62
     7
 10
137.5786221443
 20
190.2366599111
 30
0.0
 11
137.5786221443
 21
190.8919772176
 31
0.0
  0
LINE
  5
1AC
  8
0
  6
CONTINUOUS
 62
     7
 10
138.3786178051
 20
190.8919772176
 30
0.0
 11
138.3786178051
 21
190.2366599111
 31
0.0
  0
LINE
  5
1AD
  8
0
  6
CONTINUOUS
 62
     7
 10
226.1786191581
 20
190.2366599111
 30
0.0
 11
226.1786191581
 21
190.8919772176
 31
0.0
  0
LINE
  5
1AE
  8
0
  6
CONTINUOUS
 62
     7
 10
226.1786191581
 20
194.1212257413
 30
0.0
 11
226.1786191581
 21
190.8919772176
 31
0.0
  0
LINE
  5
1AF
  8
0
  6
CONTINUOUS
 62
     7
 10
137.5786221443
 20
190.8919772176
 30
0.0
 11
137.5786221443
 21
194.1212257413
 31
0.0
  0
LINE
  5
1B0
  8
0
  6
CONTINUOUS
 62
     7
 10
138.3786178051
 20
190.8919772176
 30
0.0
 11
138.3786178051
 21
194.1212257413
 31
0.0
  0
LINE
  5
1B1
  8
0
  6
CONTINUOUS
 62
     7
 10
226.1786191581
 20
194.1212257413
 30
0.0
 11
226.1786191581
 21
194.1961726216
 31
0.0
  0
LINE
  5
1B2
  8
0
  6
CONTINUOUS
 62
     7
 10
137.5786221443
 20
194.1212257413
 30
0.0
 11
137.5786221443
 21
194.1961726216
 31
0.0
  0
LINE
  5
1B3
  8
0
  6
CONTINUOUS
 62
     7
 10
138.3786178051
 20
194.1961726216
 30
0.0
 11
138.3786178051
 21
194.1212257413
 31
0.0
  0
LINE
  5
1B4
  8
0
  6
CONTINUOUS
 62
     7
 10
138.4786165176
 20
130.8059295682
 30
0.0
 11
138.4786165176
 21
243.375929263
 31
0.0
  0
POLYLINE
  5
1B5
  8
0
  6
CONTINUOUS
 62
     7
 66
     1
 10
0.0
 20
0.0
 30
0.0
  0
VERTEX
  5
58A
  8
0
  6
CONTINUOUS
 62
     7
 10
138.4786165176
 20
243.375929263
 30
0.0
  0
VERTEX
  5
58B
  8
0
  6
CONTINUOUS
 62
     7
 10
138.5090029655
 20
243.375929263
 30
0.0
  0
VERTEX
  5
58C
  8
0
  6
CONTINUOUS
 62
     7
 10
138.5992324768
 20
243.3153947858
 30
0.0
  0
VERTEX
  5
58D
  8
0
  6
CONTINUOUS
 62
     7
 10
138.7465691982
 20
243.1961616544
 30
0.0
  0
VERTEX
  5
58E
  8
0
  6
CONTINUOUS
 62
     7
 10
138.9465308605
 20
243.0218419103
 30
0.0
  0
VERTEX
  5
58F
  8
0
  6
CONTINUOUS
 62
     7
 10
139.1930437504
 20
242.7977522878
 30
0.0
  0
VERTEX
  5
590
  8
0
  6
CONTINUOUS
 62
     7
 10
139.4786215244
 20
242.5306877164
 30
0.0
  0
VERTEX
  5
591
  8
0
  6
CONTINUOUS
 62
     7
 10
139.7945797859
 20
242.2287782697
 30
0.0
  0
VERTEX
  5
592
  8
0
  6
CONTINUOUS
 62
     7
 10
140.131322187
 20
241.9011792211
 30
0.0
  0
VERTEX
  5
593
  8
0
  6
CONTINUOUS
 62
     7
 10
140.4786205708
 20
241.5578564672
 30
0.0
  0
SEQEND
  5
621
  8
0
  6
CONTINUOUS
 62
     7
  0
ARC
  5
1B6
  8
0
  6
CONTINUOUS
 62
     7
 10
144.6131614165
 20
126.4178415146
 30
0.0
 40
7.542410614844327
 50
133.948761096
 51
144.4235624706
  0
ARC
  5
1B7
  8
0
  6
CONTINUOUS
 62
     7
 10
219.9446586541
 20
126.418350114
 30
0.0
 40
7.54163924128783
 50
35.575878735
 51
46.0517507721
  0
POLYLINE
  5
1B8
  8
0
  6
CONTINUOUS
 62
     7
 66
     1
 10
0.0
 20
0.0
 30
0.0
  0
VERTEX
  5
594
  8
0
  6
CONTINUOUS
 62
     7
 10
224.0786186276
 20
241.5578564672
 30
0.0
  0
VERTEX
  5
595
  8
0
  6
CONTINUOUS
 62
     7
 10
224.4259155212
 20
241.9011792211
 30
0.0
  0
VERTEX
  5
596
  8
0
  6
CONTINUOUS
 62
     7
 10
224.7626594125
 20
242.2287782697
 30
0.0
  0
VERTEX
  5
597
  8
0
  6
CONTINUOUS
 62
     7
 10
225.0786191641
 20
242.5306877164
 30
0.0
  0
VERTEX
  5
598
  8
0
  6
CONTINUOUS
 62
     7
 10
225.3641939579
 20
242.7977522878
 30
0.0
  0
VERTEX
  5
599
  8
0
  6
CONTINUOUS
 62
     7
 10
225.6107083379
 20
243.0218419103
 30
0.0
  0
VERTEX
  5
59A
  8
0
  6
CONTINUOUS
 62
     7
 10
225.8106700002
 20
243.1961616544
 30
0.0
  0
VERTEX
  5
59B
  8
0
  6
CONTINUOUS
 62
     7
 10
225.9580044864
 20
243.3153947858
 30
0.0
  0
VERTEX
  5
59C
  8
0
  6
CONTINUOUS
 62
     7
 10
226.0482347427
 20
243.375929263
 30
0.0
  0
VERTEX
  5
59D
  8
0
  6
CONTINUOUS
 62
     7
 10
226.0786189555
 20
243.375929263
 30
0.0
  0
SEQEND
  5
620
  8
0
  6
CONTINUOUS
 62
     7
  0
LINE
  5
1B9
  8
0
  6
CONTINUOUS
 62
     7
 10
226.0786189555
 20
243.375929263
 30
0.0
 11
226.0786189555
 21
243.1162437467
 31
0.0
  0
LINE
  5
1BA
  8
0
  6
CONTINUOUS
 62
     7
 10
226.0786189555
 20
194.2435106305
 30
0.0
 11
226.0786189555
 21
130.8059295682
 31
0.0
  0
LINE
  5
1BB
  8
0
  6
CONTINUOUS
 62
     7
 10
138.4786165176
 20
130.405010846
 30
0.0
 11
139.3786168514
 21
130.405010846
 31
0.0
  0
LINE
  5
1BC
  8
0
  6
CONTINUOUS
 62
     7
 10
225.1786193667
 20
130.405010846
 30
0.0
 11
226.0786189555
 21
130.405010846
 31
0.0
  0
LINE
  5
1BD
  8
0
  6
CONTINUOUS
 62
     7
 10
226.0786189555
 20
130.8059295682
 30
0.0
 11
226.0786189555
 21
130.405010846
 31
0.0
  0
LINE
  5
1BE
  8
0
  6
CONTINUOUS
 62
     7
 10
138.4786165176
 20
130.8059295682
 30
0.0
 11
138.4786165176
 21
130.405010846
 31
0.0
  0
LINE
  5
1BF
  8
0
  6
CONTINUOUS
 62
     7
 10
138.3786178051
 20
243.0746277837
 30
0.0
 11
138.3786178051
 21
194.1961726216
 31
0.0
  0
LINE
  5
1C0
  8
0
  6
CONTINUOUS
 62
     7
 10
138.4786165176
 20
243.0746277837
 30
0.0
 11
138.3786178051
 21
243.0746277837
 31
0.0
  0
LINE
  5
1C1
  8
0
  6
CONTINUOUS
 62
     7
 10
139.3786168514
 20
128.8110991982
 30
0.0
 11
138.3786178051
 21
128.8110991982
 31
0.0
  0
LINE
  5
1C2
  8
0
  6
CONTINUOUS
 62
     7
 10
226.1786191581
 20
128.8110991982
 30
0.0
 11
225.1786193667
 21
128.8110991982
 31
0.0
  0
LINE
  5
1C3
  8
0
  6
CONTINUOUS
 62
     7
 10
137.5786221443
 20
110.4111036328
 30
0.0
 11
137.1786153732
 21
110.4111036328
 31
0.0
  0
LINE
  5
1C4
  8
0
  6
CONTINUOUS
 62
     7
 10
137.1786153732
 20
190.4110988645
 30
0.0
 11
137.5786221443
 21
190.4110988645
 31
0.0
  0
ARC
  5
1C5
  8
0
  6
CONTINUOUS
 62
     7
 10
360.7786190926
 20
-64.1816617372
 30
0.0
 40
0.3999999999999915
 50
270.0
 51
0.0
  0
LINE
  5
1C6
  8
0
  6
CONTINUOUS
 62
     7
 10
339.3786228119
 20
-64.5816618985
 30
0.0
 11
360.7786214767
 21
-64.5816618985
 31
0.0
  0
ARC
  5
1C7
  8
0
  6
CONTINUOUS
 62
     7
 10
339.3786190926
 20
-64.1816617372
 30
0.0
 40
0.3999999999999915
 50
180.0
 51
270.0
  0
LINE
  5
1C8
  8
0
  6
CONTINUOUS
 62
     7
 10
227.3786193548
 20
-64.5816618985
 30
0.0
 11
248.7786187647
 21
-64.5816618985
 31
0.0
  0
ARC
  5
1C9
  8
0
  6
CONTINUOUS
 62
     7
 10
248.7786190926
 20
-64.1816617372
 30
0.0
 40
0.3999999999999915
 50
270.0
 51
0.0
  0
ARC
  5
1CA
  8
0
  6
CONTINUOUS
 62
     7
 10
227.3786190926
 20
-64.1816617372
 30
0.0
 40
0.4000000000000057
 50
180.0
 51
270.0
  0
ARC
  5
1CB
  8
0
  6
CONTINUOUS
 62
     7
 10
115.3786190926
 20
-64.1816617372
 30
0.0
 40
0.4000000000000057
 50
180.0
 51
270.0
  0
LINE
  5
1CC
  8
0
  6
CONTINUOUS
 62
     7
 10
115.3786218582
 20
-64.5816618985
 30
0.0
 11
136.7786205231
 21
-64.5816618985
 31
0.0
  0
ARC
  5
1CD
  8
0
  6
CONTINUOUS
 62
     7
 10
136.7786190926
 20
-64.1816617372
 30
0.0
 40
0.3999999999999915
 50
270.0
 51
0.0
  0
ARC
  5
1CE
  8
0
  6
CONTINUOUS
 62
     7
 10
462.2786190926
 20
-64.1816617372
 30
0.0
 40
0.4000000000000057
 50
270.0
 51
0.0
  0
LINE
  5
1CF
  8
0
  6
CONTINUOUS
 62
     7
 10
451.3786232887
 20
-64.5816618985
 30
0.0
 11
462.2786200462
 21
-64.5816618985
 31
0.0
  0
ARC
  5
1D0
  8
0
  6
CONTINUOUS
 62
     7
 10
451.3786190926
 20
-64.1816617372
 30
0.0
 40
0.4000000000000057
 50
180.0
 51
270.0
  0
ARC
  5
1D1
  8
0
  6
CONTINUOUS
 62
     7
 10
14.2786190926
 20
-64.1816617372
 30
0.0
 40
0.400000000000011
 50
180.0
 51
270.0
  0
ARC
  5
1D2
  8
0
  6
CONTINUOUS
 62
     7
 10
25.1786190926
 20
-64.1816617372
 30
0.0
 40
0.4000000000000092
 50
270.0
 51
0.0
  0
LINE
  5
1D3
  8
0
  6
CONTINUOUS
 62
     7
 10
14.2786181389
 20
-64.5816618985
 30
0.0
 11
25.1786148964
 21
-64.5816618985
 31
0.0
  0
LINE
  5
1D4
  8
0
  6
CONTINUOUS
 62
     7
 10
362.4786174713
 20
-61.026185233
 30
0.0
 11
363.3786237656
 21
-61.026185233
 31
0.0
  0
LINE
  5
1D5
  8
0
  6
CONTINUOUS
 62
     7
 10
363.3786237656
 20
-56.2261844462
 30
0.0
 11
362.4786174713
 21
-56.2261844462
 31
0.0
  0
LINE
  5
1D6
  8
0
  6
CONTINUOUS
 62
     7
 10
449.1786158501
 20
-61.026185233
 30
0.0
 11
450.0786221443
 21
-61.026185233
 31
0.0
  0
LINE
  5
1D7
  8
0
  6
CONTINUOUS
 62
     7
 10
450.0786221443
 20
-56.2261844462
 30
0.0
 11
449.1786158501
 21
-56.2261844462
 31
0.0
  0
LINE
  5
1D8
  8
0
  6
CONTINUOUS
 62
     7
 10
110.9877980171
 20
-42.5990010088
 30
0.0
 11
29.5694506584
 21
-42.5990010088
 31
0.0
  0
LINE
  5
1D9
  8
0
  6
CONTINUOUS
 62
     7
 10
26.4786160408
 20
-61.026185233
 30
0.0
 11
27.4786150871
 21
-61.026185233
 31
0.0
  0
LINE
  5
1DA
  8
0
  6
CONTINUOUS
 62
     7
 10
27.4786150871
 20
-56.2261844462
 30
0.0
 11
26.4786160408
 21
-56.2261844462
 31
0.0
  0
LINE
  5
1DB
  8
0
  6
CONTINUOUS
 62
     7
 10
113.0786216675
 20
-61.026185233
 30
0.0
 11
114.0786207138
 21
-61.026185233
 31
0.0
  0
LINE
  5
1DC
  8
0
  6
CONTINUOUS
 62
     7
 10
114.0786207138
 20
-56.2261844462
 30
0.0
 11
113.0786216675
 21
-56.2261844462
 31
0.0
  0
ARC
  5
1DD
  8
0
  6
CONTINUOUS
 62
     7
 10
27.8786190926
 20
-64.1274738538
 30
0.0
 40
0.4000000000000057
 50
180.0
 51
270.0
  0
LINE
  5
1DE
  8
0
  6
CONTINUOUS
 62
     7
 10
27.8786099373
 20
-64.5274753159
 30
0.0
 11
112.6786148964
 21
-64.5274753159
 31
0.0
  0
ARC
  5
1DF
  8
0
  6
CONTINUOUS
 62
     7
 10
112.6786190926
 20
-64.1274738538
 30
0.0
 40
0.4000000000000057
 50
270.0
 51
0.0
  0
LINE
  5
1E0
  8
0
  6
CONTINUOUS
 62
     7
 10
222.9877925335
 20
-42.5990010088
 30
0.0
 11
141.5694451748
 21
-42.5990010088
 31
0.0
  0
LINE
  5
1E1
  8
0
  6
CONTINUOUS
 62
     7
 10
225.0786191641
 20
-61.026185233
 30
0.0
 11
226.0786189555
 21
-61.026185233
 31
0.0
  0
LINE
  5
1E2
  8
0
  6
CONTINUOUS
 62
     7
 10
226.0786189555
 20
-56.2261844462
 30
0.0
 11
225.0786191641
 21
-56.2261844462
 31
0.0
  0
LINE
  5
1E3
  8
0
  6
CONTINUOUS
 62
     7
 10
138.4786165176
 20
-61.026185233
 30
0.0
 11
139.4786215244
 21
-61.026185233
 31
0.0
  0
LINE
  5
1E4
  8
0
  6
CONTINUOUS
 62
     7
 10
139.4786215244
 20
-56.2261844462
 30
0.0
 11
138.4786165176
 21
-56.2261844462
 31
0.0
  0
ARC
  5
1E5
  8
0
  6
CONTINUOUS
 62
     7
 10
139.8786190926
 20
-64.1274738538
 30
0.0
 40
0.4000000000000057
 50
180.0
 51
270.0
  0
ARC
  5
1E6
  8
0
  6
CONTINUOUS
 62
     7
 10
224.6786190926
 20
-64.1274738538
 30
0.0
 40
0.4000000000000057
 50
270.0
 51
0.0
  0
LINE
  5
1E7
  8
0
  6
CONTINUOUS
 62
     7
 10
139.8786163746
 20
-64.5274753159
 30
0.0
 11
224.6786183535
 21
-64.5274753159
 31
0.0
  0
LINE
  5
1E8
  8
0
  6
CONTINUOUS
 62
     7
 10
334.9877930103
 20
-42.5990010088
 30
0.0
 11
253.5694456516
 21
-42.5990010088
 31
0.0
  0
LINE
  5
1E9
  8
0
  6
CONTINUOUS
 62
     7
 10
337.0786166607
 20
-61.026185233
 30
0.0
 11
338.0786216675
 21
-61.026185233
 31
0.0
  0
LINE
  5
1EA
  8
0
  6
CONTINUOUS
 62
     7
 10
338.0786216675
 20
-56.2261844462
 30
0.0
 11
337.0786166607
 21
-56.2261844462
 31
0.0
  0
LINE
  5
1EB
  8
0
  6
CONTINUOUS
 62
     7
 10
250.4786192297
 20
-61.026185233
 30
0.0
 11
251.478619021
 21
-61.026185233
 31
0.0
  0
LINE
  5
1EC
  8
0
  6
CONTINUOUS
 62
     7
 10
251.478619021
 20
-56.2261844462
 30
0.0
 11
250.4786192297
 21
-56.2261844462
 31
0.0
  0
ARC
  5
1ED
  8
0
  6
CONTINUOUS
 62
     7
 10
251.8786190926
 20
-64.1274738538
 30
0.0
 40
0.4000000000000057
 50
180.0
 51
270.0
  0
LINE
  5
1EE
  8
0
  6
CONTINUOUS
 62
     7
 10
251.8786198317
 20
-64.5274753159
 30
0.0
 11
336.6786218105
 21
-64.5274753159
 31
0.0
  0
ARC
  5
1EF
  8
0
  6
CONTINUOUS
 62
     7
 10
336.6786190926
 20
-64.1274738538
 30
0.0
 40
0.4000000000000057
 50
270.0
 51
0.0
  0
LINE
  5
1F0
  8
0
  6
CONTINUOUS
 62
     7
 10
338.17862038
 20
-57.4261838978
 30
0.0
 11
338.0786216675
 21
-57.4261838978
 31
0.0
  0
LINE
  5
1F1
  8
0
  6
CONTINUOUS
 62
     7
 10
250.4786192297
 20
-57.4261838978
 30
0.0
 11
250.378619027
 21
-57.4261838978
 31
0.0
  0
LINE
  5
1F2
  8
0
  6
CONTINUOUS
 62
     7
 10
250.378619027
 20
-59.8261857813
 30
0.0
 11
250.4786192297
 21
-59.8261857813
 31
0.0
  0
LINE
  5
1F3
  8
0
  6
CONTINUOUS
 62
     7
 10
338.0786216675
 20
-59.8261857813
 30
0.0
 11
338.17862038
 21
-59.8261857813
 31
0.0
  0
LINE
  5
1F4
  8
0
  6
CONTINUOUS
 62
     7
 10
338.17862038
 20
-63.8724590128
 30
0.0
 11
338.9786160408
 21
-63.8724590128
 31
0.0
  0
LINE
  5
1F5
  8
0
  6
CONTINUOUS
 62
     7
 10
249.5786188959
 20
-63.8724590128
 30
0.0
 11
250.378619027
 21
-63.8724590128
 31
0.0
  0
LINE
  5
1F6
  8
0
  6
CONTINUOUS
 62
     7
 10
114.1786134659
 20
-57.4261838978
 30
0.0
 11
114.0786207138
 21
-57.4261838978
 31
0.0
  0
LINE
  5
1F7
  8
0
  6
CONTINUOUS
 62
     7
 10
26.4786160408
 20
-57.4261838978
 30
0.0
 11
26.3786232887
 21
-57.4261838978
 31
0.0
  0
LINE
  5
1F8
  8
0
  6
CONTINUOUS
 62
     7
 10
26.3786232887
 20
-59.8261857813
 30
0.0
 11
26.4786160408
 21
-59.8261857813
 31
0.0
  0
LINE
  5
1F9
  8
0
  6
CONTINUOUS
 62
     7
 10
114.0786207138
 20
-59.8261857813
 30
0.0
 11
114.1786134659
 21
-59.8261857813
 31
0.0
  0
LINE
  5
1FA
  8
0
  6
CONTINUOUS
 62
     7
 10
25.5786097466
 20
-63.8724590128
 30
0.0
 11
26.3786232887
 21
-63.8724590128
 31
0.0
  0
LINE
  5
1FB
  8
0
  6
CONTINUOUS
 62
     7
 10
114.1786134659
 20
-63.8724590128
 30
0.0
 11
114.9786150871
 21
-63.8724590128
 31
0.0
  0
LINE
  5
1FC
  8
0
  6
CONTINUOUS
 62
     7
 10
364.3043077408
 20
-47.5149194187
 30
0.0
 11
448.2529318749
 21
-47.5149194187
 31
0.0
  0
LINE
  5
1FD
  8
0
  6
CONTINUOUS
 62
     7
 10
450.1786148964
 20
-57.4261838978
 30
0.0
 11
450.0786221443
 21
-57.4261838978
 31
0.0
  0
LINE
  5
1FE
  8
0
  6
CONTINUOUS
 62
     7
 10
362.4786174713
 20
-57.4261838978
 30
0.0
 11
362.3786247192
 21
-57.4261838978
 31
0.0
  0
LINE
  5
1FF
  8
0
  6
CONTINUOUS
 62
     7
 10
362.3786247192
 20
-59.8261857813
 30
0.0
 11
362.4786174713
 21
-59.8261857813
 31
0.0
  0
LINE
  5
200
  8
0
  6
CONTINUOUS
 62
     7
 10
450.0786221443
 20
-59.8261857813
 30
0.0
 11
450.1786148964
 21
-59.8261857813
 31
0.0
  0
LINE
  5
201
  8
0
  6
CONTINUOUS
 62
     7
 10
450.1786148964
 20
-63.8724590128
 30
0.0
 11
450.9786284386
 21
-63.8724590128
 31
0.0
  0
LINE
  5
202
  8
0
  6
CONTINUOUS
 62
     7
 10
361.578623098
 20
-63.8724590128
 30
0.0
 11
362.3786247192
 21
-63.8724590128
 31
0.0
  0
LINE
  5
203
  8
0
  6
CONTINUOUS
 62
     7
 10
226.1786191581
 20
-57.4261838978
 30
0.0
 11
226.0786189555
 21
-57.4261838978
 31
0.0
  0
LINE
  5
204
  8
0
  6
CONTINUOUS
 62
     7
 10
138.4786165176
 20
-57.4261838978
 30
0.0
 11
138.3786178051
 21
-57.4261838978
 31
0.0
  0
LINE
  5
205
  8
0
  6
CONTINUOUS
 62
     7
 10
138.3786178051
 20
-59.8261857813
 30
0.0
 11
138.4786165176
 21
-59.8261857813
 31
0.0
  0
LINE
  5
206
  8
0
  6
CONTINUOUS
 62
     7
 10
226.0786189555
 20
-59.8261857813
 30
0.0
 11
226.1786191581
 21
-59.8261857813
 31
0.0
  0
LINE
  5
207
  8
0
  6
CONTINUOUS
 62
     7
 10
226.1786191581
 20
-63.8724590128
 30
0.0
 11
226.9786192893
 21
-63.8724590128
 31
0.0
  0
LINE
  5
208
  8
0
  6
CONTINUOUS
 62
     7
 10
137.5786221443
 20
-63.8724590128
 30
0.0
 11
138.3786178051
 21
-63.8724590128
 31
0.0
  0
LINE
  5
209
  8
0
  6
CONTINUOUS
 62
     7
 10
361.6786158501
 20
-29.3869929331
 30
0.0
 11
338.4786165176
 21
-29.3869929331
 31
0.0
  0
LINE
  5
20A
  8
0
  6
CONTINUOUS
 62
     7
 10
338.0786216675
 20
-36.31552257
 30
0.0
 11
338.0786216675
 21
-35.8667875117
 31
0.0
  0
ARC
  5
20B
  8
0
  6
CONTINUOUS
 62
     7
 10
338.4545817847
 20
-32.5944779536
 30
0.0
 40
3.207575069302249
 50
89.5706720455
 51
94.9355025122
  0
LINE
  5
20C
  8
0
  6
CONTINUOUS
 62
     7
 10
362.0786226212
 20
-29.4218552707
 30
0.0
 11
362.0786226212
 21
-36.31552257
 31
0.0
  0
ARC
  5
20D
  8
0
  6
CONTINUOUS
 62
     7
 10
361.7778598543
 20
-30.5605265758
 30
0.0
 40
1.177722625638268
 50
75.2041000517
 51
94.8339174214
  0
LINE
  5
20E
  8
0
  6
CONTINUOUS
 62
     7
 10
338.0786216675
 20
-40.5878970808
 30
0.0
 11
338.0786216675
 21
-36.31552257
 31
0.0
  0
ARC
  5
20F
  8
0
  6
CONTINUOUS
 62
     7
 10
338.477853836
 20
-40.5871428402
 30
0.0
 40
0.399232880967286
 50
180.1082446514
 51
270.1094560812
  0
LINE
  5
210
  8
0
  6
CONTINUOUS
 62
     7
 10
361.6786158501
 20
-40.9863749927
 30
0.0
 11
360.7786214767
 21
-40.9863749927
 31
0.0
  0
LINE
  5
211
  8
0
  6
CONTINUOUS
 62
     7
 10
360.7786214767
 20
-40.9863749927
 30
0.0
 11
339.3786228119
 21
-40.9863749927
 31
0.0
  0
LINE
  5
212
  8
0
  6
CONTINUOUS
 62
     7
 10
339.3786228119
 20
-40.9863749927
 30
0.0
 11
338.4786165176
 21
-40.9863749927
 31
0.0
  0
LINE
  5
213
  8
0
  6
CONTINUOUS
 62
     7
 10
362.0786226212
 20
-36.31552257
 30
0.0
 11
362.0786226212
 21
-40.5878970808
 31
0.0
  0
ARC
  5
214
  8
0
  6
CONTINUOUS
 62
     7
 10
361.6793820831
 20
-40.5871344616
 30
0.0
 40
0.3992412663778488
 50
269.8900365466
 51
359.8905551894
  0
LINE
  5
215
  8
0
  6
CONTINUOUS
 62
     7
 10
361.1786163269
 20
-48.8860154933
 30
0.0
 11
361.1786163269
 21
-56.95204683
 31
0.0
  0
LINE
  5
216
  8
0
  6
CONTINUOUS
 62
     7
 10
338.9786160408
 20
-56.95204683
 30
0.0
 11
338.9786160408
 21
-48.8860154933
 31
0.0
  0
LINE
  5
217
  8
0
  6
CONTINUOUS
 62
     7
 10
338.9786160408
 20
-48.8860154933
 30
0.0
 11
338.9786160408
 21
-40.9863749927
 31
0.0
  0
LINE
  5
218
  8
0
  6
CONTINUOUS
 62
     7
 10
361.1786163269
 20
-40.9863749927
 30
0.0
 11
361.1786163269
 21
-48.8860154933
 31
0.0
  0
LINE
  5
219
  8
0
  6
CONTINUOUS
 62
     7
 10
338.9786160408
 20
-64.1816610879
 30
0.0
 11
338.9786160408
 21
-56.95204683
 31
0.0
  0
LINE
  5
21A
  8
0
  6
CONTINUOUS
 62
     7
 10
361.1786163269
 20
-56.95204683
 30
0.0
 11
361.1786163269
 21
-64.1816610879
 31
0.0
  0
LINE
  5
21B
  8
0
  6
CONTINUOUS
 62
     7
 10
226.0786189555
 20
-36.31552257
 30
0.0
 11
226.0786189555
 21
-35.8667875117
 31
0.0
  0
ARC
  5
21C
  8
0
  6
CONTINUOUS
 62
     7
 10
226.4545957306
 20
-32.5948558883
 30
0.0
 40
3.207952907754508
 50
89.5709269884
 51
94.935191671
  0
LINE
  5
21D
  8
0
  6
CONTINUOUS
 62
     7
 10
249.6786190985
 20
-29.3869929331
 30
0.0
 11
226.478619021
 21
-29.3869929331
 31
0.0
  0
LINE
  5
21E
  8
0
  6
CONTINUOUS
 62
     7
 10
250.0786191641
 20
-29.4218552707
 30
0.0
 11
250.0786191641
 21
-36.31552257
 31
0.0
  0
ARC
  5
21F
  8
0
  6
CONTINUOUS
 62
     7
 10
249.7778595009
 20
-30.5605100526
 30
0.0
 40
1.177705857760902
 50
75.2040407567
 51
94.8338105557
  0
LINE
  5
220
  8
0
  6
CONTINUOUS
 62
     7
 10
226.0786189555
 20
-40.5878970808
 30
0.0
 11
226.0786189555
 21
-36.31552257
 31
0.0
  0
ARC
  5
221
  8
0
  6
CONTINUOUS
 62
     7
 10
226.4778593181
 20
-40.5871346248
 30
0.0
 40
0.3992410906872646
 50
180.1094214359
 51
270.1090263479
  0
LINE
  5
222
  8
0
  6
CONTINUOUS
 62
     7
 10
250.0786191641
 20
-36.31552257
 30
0.0
 11
250.0786191641
 21
-40.5878970808
 31
0.0
  0
ARC
  5
223
  8
0
  6
CONTINUOUS
 62
     7
 10
249.6793788015
 20
-40.5871346248
 30
0.0
 40
0.3992410906873785
 50
269.8909736521
 51
359.890578564
  0
LINE
  5
224
  8
0
  6
CONTINUOUS
 62
     7
 10
249.6786190985
 20
-40.9863749927
 30
0.0
 11
248.7786187647
 21
-40.9863749927
 31
0.0
  0
LINE
  5
225
  8
0
  6
CONTINUOUS
 62
     7
 10
248.7786187647
 20
-40.9863749927
 30
0.0
 11
227.3786193548
 21
-40.9863749927
 31
0.0
  0
LINE
  5
226
  8
0
  6
CONTINUOUS
 62
     7
 10
227.3786193548
 20
-40.9863749927
 30
0.0
 11
226.478619021
 21
-40.9863749927
 31
0.0
  0
LINE
  5
227
  8
0
  6
CONTINUOUS
 62
     7
 10
226.9786192893
 20
-56.95204683
 30
0.0
 11
226.9786192893
 21
-48.8860154933
 31
0.0
  0
LINE
  5
228
  8
0
  6
CONTINUOUS
 62
     7
 10
249.1786188303
 20
-48.8860154933
 30
0.0
 11
249.1786188303
 21
-56.95204683
 31
0.0
  0
LINE
  5
229
  8
0
  6
CONTINUOUS
 62
     7
 10
249.1786188303
 20
-40.9863749927
 30
0.0
 11
249.1786188303
 21
-48.8860154933
 31
0.0
  0
LINE
  5
22A
  8
0
  6
CONTINUOUS
 62
     7
 10
226.9786192893
 20
-48.8860154933
 30
0.0
 11
226.9786192893
 21
-40.9863749927
 31
0.0
  0
LINE
  5
22B
  8
0
  6
CONTINUOUS
 62
     7
 10
249.1786188303
 20
-56.95204683
 30
0.0
 11
249.1786188303
 21
-64.1816610879
 31
0.0
  0
LINE
  5
22C
  8
0
  6
CONTINUOUS
 62
     7
 10
226.9786192893
 20
-64.1816610879
 30
0.0
 11
226.9786192893
 21
-56.95204683
 31
0.0
  0
LINE
  5
22D
  8
0
  6
CONTINUOUS
 62
     7
 10
114.0786207138
 20
-36.31552257
 30
0.0
 11
114.0786207138
 21
-35.8667875117
 31
0.0
  0
ARC
  5
22E
  8
0
  6
CONTINUOUS
 62
     7
 10
114.4546280791
 20
-32.5958182313
 30
0.0
 40
3.208914955897908
 50
89.5716949619
 51
94.9343901591
  0
LINE
  5
22F
  8
0
  6
CONTINUOUS
 62
     7
 10
138.0786216675
 20
-29.4218552707
 30
0.0
 11
138.0786216675
 21
-36.31552257
 31
0.0
  0
ARC
  5
230
  8
0
  6
CONTINUOUS
 62
     7
 10
137.7778589006
 20
-30.5605265758
 30
0.0
 40
1.177722625638146
 50
75.2041000517
 51
94.8339174213
  0
LINE
  5
231
  8
0
  6
CONTINUOUS
 62
     7
 10
137.6786148964
 20
-29.3869929331
 30
0.0
 11
114.478615564
 21
-29.3869929331
 31
0.0
  0
LINE
  5
232
  8
0
  6
CONTINUOUS
 62
     7
 10
138.0786216675
 20
-36.31552257
 30
0.0
 11
138.0786216675
 21
-40.5878970808
 31
0.0
  0
ARC
  5
233
  8
0
  6
CONTINUOUS
 62
     7
 10
137.6793811295
 20
-40.5871344616
 30
0.0
 40
0.3992412663778205
 50
269.8900365466
 51
359.8905551894
  0
LINE
  5
234
  8
0
  6
CONTINUOUS
 62
     7
 10
137.6786148964
 20
-40.9863749927
 30
0.0
 11
136.7786205231
 21
-40.9863749927
 31
0.0
  0
LINE
  5
235
  8
0
  6
CONTINUOUS
 62
     7
 10
136.7786205231
 20
-40.9863749927
 30
0.0
 11
115.3786218582
 21
-40.9863749927
 31
0.0
  0
LINE
  5
236
  8
0
  6
CONTINUOUS
 62
     7
 10
115.3786218582
 20
-40.9863749927
 30
0.0
 11
114.478615564
 21
-40.9863749927
 31
0.0
  0
LINE
  5
237
  8
0
  6
CONTINUOUS
 62
     7
 10
114.0786207138
 20
-40.5878970808
 30
0.0
 11
114.0786207138
 21
-36.31552257
 31
0.0
  0
ARC
  5
238
  8
0
  6
CONTINUOUS
 62
     7
 10
114.477861214
 20
-40.5871344768
 30
0.0
 40
0.3992412285500833
 50
180.1094426398
 51
270.1082580927
  0
LINE
  5
239
  8
0
  6
CONTINUOUS
 62
     7
 10
114.9786150871
 20
-56.95204683
 30
0.0
 11
114.9786150871
 21
-48.8860154933
 31
0.0
  0
LINE
  5
23A
  8
0
  6
CONTINUOUS
 62
     7
 10
137.1786153732
 20
-48.8860154933
 30
0.0
 11
137.1786153732
 21
-56.95204683
 31
0.0
  0
LINE
  5
23B
  8
0
  6
CONTINUOUS
 62
     7
 10
114.9786150871
 20
-48.8860154933
 30
0.0
 11
114.9786150871
 21
-40.9863749927
 31
0.0
  0
LINE
  5
23C
  8
0
  6
CONTINUOUS
 62
     7
 10
137.1786153732
 20
-40.9863749927
 30
0.0
 11
137.1786153732
 21
-48.8860154933
 31
0.0
  0
LINE
  5
23D
  8
0
  6
CONTINUOUS
 62
     7
 10
114.9786150871
 20
-64.1816610879
 30
0.0
 11
114.9786150871
 21
-56.95204683
 31
0.0
  0
LINE
  5
23E
  8
0
  6
CONTINUOUS
 62
     7
 10
137.1786153732
 20
-56.95204683
 30
0.0
 11
137.1786153732
 21
-64.1816610879
 31
0.0
  0
LINE
  5
23F
  8
0
  6
CONTINUOUS
 62
     7
 10
462.6786148964
 20
-48.8860154933
 30
0.0
 11
462.6786148964
 21
-56.95204683
 31
0.0
  0
LINE
  5
240
  8
0
  6
CONTINUOUS
 62
     7
 10
450.9786284386
 20
-56.95204683
 30
0.0
 11
450.9786284386
 21
-48.8860154933
 31
0.0
  0
LINE
  5
241
  8
0
  6
CONTINUOUS
 62
     7
 10
462.2786200462
 20
-28.6261851376
 30
0.0
 11
451.3786232887
 21
-28.6261851376
 31
0.0
  0
ARC
  5
242
  8
0
  6
CONTINUOUS
 62
     7
 10
451.2793793034
 20
-29.7996174861
 30
0.0
 40
1.177621690144246
 50
85.1656681919
 51
104.7965981471
  0
LINE
  5
243
  8
0
  6
CONTINUOUS
 62
     7
 10
450.9786284386
 20
-48.8860154933
 30
0.0
 11
450.9786284386
 21
-28.6610474345
 31
0.0
  0
LINE
  5
244
  8
0
  6
CONTINUOUS
 62
     7
 10
462.4786293922
 20
-28.6261851376
 30
0.0
 11
462.6786148964
 21
-28.6261851376
 31
0.0
  0
ARC
  5
245
  8
0
  6
CONTINUOUS
 62
     7
 10
462.2839801143
 20
-32.6814374861
 30
0.0
 40
4.055255890831376
 50
87.2487879148
 51
90.0757311936
  0
LINE
  5
246
  8
0
  6
CONTINUOUS
 62
     7
 10
462.6786148964
 20
-28.6261851376
 30
0.0
 11
462.6786148964
 21
-48.8860154933
 31
0.0
  0
LINE
  5
247
  8
0
  6
CONTINUOUS
 62
     7
 10
462.4786293922
 20
-28.6308557996
 30
0.0
 11
462.4786293922
 21
-28.6261851376
 31
0.0
  0
LINE
  5
248
  8
0
  6
CONTINUOUS
 62
     7
 10
450.9786284386
 20
-64.1816610879
 30
0.0
 11
450.9786284386
 21
-56.95204683
 31
0.0
  0
LINE
  5
249
  8
0
  6
CONTINUOUS
 62
     7
 10
462.6786148964
 20
-56.95204683
 30
0.0
 11
462.6786148964
 21
-64.1816610879
 31
0.0
  0
LINE
  5
24A
  8
0
  6
CONTINUOUS
 62
     7
 10
462.4786293922
 20
-28.6261851376
 30
0.0
 11
462.2786200462
 21
-28.6261851376
 31
0.0
  0
LINE
  5
24B
  8
0
  6
CONTINUOUS
 62
     7
 10
25.5786097466
 20
-48.8860154933
 30
0.0
 11
25.5786097466
 21
-56.95204683
 31
0.0
  0
LINE
  5
24C
  8
0
  6
CONTINUOUS
 62
     7
 10
13.8786232887
 20
-56.95204683
 30
0.0
 11
13.8786232887
 21
-48.8860154933
 31
0.0
  0
ARC
  5
24D
  8
0
  6
CONTINUOUS
 62
     7
 10
25.2778588818
 20
-29.7996174861
 30
0.0
 40
1.177621690144109
 50
75.2034018529
 51
94.8343318081
  0
LINE
  5
24E
  8
0
  6
CONTINUOUS
 62
     7
 10
25.5786097466
 20
-28.6610474345
 30
0.0
 11
25.5786097466
 21
-48.8860154933
 31
0.0
  0
LINE
  5
24F
  8
0
  6
CONTINUOUS
 62
     7
 10
13.8786232887
 20
-28.6261851376
 30
0.0
 11
14.0786087929
 21
-28.6261851376
 31
0.0
  0
ARC
  5
250
  8
0
  6
CONTINUOUS
 62
     7
 10
14.2732580708
 20
-32.6814374861
 30
0.0
 40
4.055255890833704
 50
89.9242688064
 51
92.7512120852
  0
LINE
  5
251
  8
0
  6
CONTINUOUS
 62
     7
 10
13.8786232887
 20
-48.8860154933
 30
0.0
 11
13.8786232887
 21
-28.6261851376
 31
0.0
  0
LINE
  5
252
  8
0
  6
CONTINUOUS
 62
     7
 10
14.0786087929
 20
-28.6261851376
 30
0.0
 11
14.0786087929
 21
-28.6308557996
 31
0.0
  0
LINE
  5
253
  8
0
  6
CONTINUOUS
 62
     7
 10
25.1786148964
 20
-28.6261851376
 30
0.0
 11
14.2786181389
 21
-28.6261851376
 31
0.0
  0
LINE
  5
254
  8
0
  6
CONTINUOUS
 62
     7
 10
13.8786232887
 20
-64.1816610879
 30
0.0
 11
13.8786232887
 21
-56.95204683
 31
0.0
  0
LINE
  5
255
  8
0
  6
CONTINUOUS
 62
     7
 10
25.5786097466
 20
-56.95204683
 30
0.0
 11
25.5786097466
 21
-64.1816610879
 31
0.0
  0
LINE
  5
256
  8
0
  6
CONTINUOUS
 62
     7
 10
14.2786181389
 20
-28.6261851376
 30
0.0
 11
14.0786087929
 21
-28.6261851376
 31
0.0
  0
LINE
  5
257
  8
0
  6
CONTINUOUS
 62
     7
 10
449.1786158501
 20
-54.8261845892
 30
0.0
 11
449.1786158501
 21
-128.226184327
 31
0.0
  0
POLYLINE
  5
258
  8
0
  6
CONTINUOUS
 62
     7
 66
     1
 10
0.0
 20
0.0
 30
0.0
  0
VERTEX
  5
59E
  8
0
  6
CONTINUOUS
 62
     7
 10
446.7786229073
 20
-125.8261854237
 30
0.0
  0
VERTEX
  5
59F
  8
0
  6
CONTINUOUS
 62
     7
 10
447.1540606438
 20
-126.2016291207
 30
0.0
  0
VERTEX
  5
5A0
  8
0
  6
CONTINUOUS
 62
     7
 10
447.5202715813
 20
-126.5678281373
 30
0.0
  0
VERTEX
  5
5A1
  8
0
  6
CONTINUOUS
 62
     7
 10
447.8681958138
 20
-126.9157642907
 30
0.0
  0
VERTEX
  5
5A2
  8
0
  6
CONTINUOUS
 62
     7
 10
448.1892979561
 20
-127.2368723935
 30
0.0
  0
VERTEX
  5
5A3
  8
0
  6
CONTINUOUS
 62
     7
 10
448.4756863533
 20
-127.5232429093
 30
0.0
  0
VERTEX
  5
5A4
  8
0
  6
CONTINUOUS
 62
     7
 10
448.7202561317
 20
-127.7678246087
 30
0.0
  0
VERTEX
  5
5A5
  8
0
  6
CONTINUOUS
 62
     7
 10
448.9170229851
 20
-127.9646033829
 30
0.0
  0
VERTEX
  5
5A6
  8
0
  6
CONTINUOUS
 62
     7
 10
449.0611470161
 20
-128.1087214535
 30
0.0
  0
VERTEX
  5
5A7
  8
0
  6
CONTINUOUS
 62
     7
 10
449.1490757881
 20
-128.1966383046
 30
0.0
  0
VERTEX
  5
5A8
  8
0
  6
CONTINUOUS
 62
     7
 10
449.1786158501
 20
-128.226184327
 30
0.0
  0
SEQEND
  5
61F
  8
0
  6
CONTINUOUS
 62
     7
  0
POLYLINE
  5
259
  8
0
  6
CONTINUOUS
 62
     7
 66
     1
 10
0.0
 20
0.0
 30
0.0
  0
VERTEX
  5
5A9
  8
0
  6
CONTINUOUS
 62
     7
 10
449.1786158501
 20
-54.8261845892
 30
0.0
  0
VERTEX
  5
5AA
  8
0
  6
CONTINUOUS
 62
     7
 10
449.1490757881
 20
-54.8557335919
 30
0.0
  0
VERTEX
  5
5AB
  8
0
  6
CONTINUOUS
 62
     7
 10
449.0611470161
 20
-54.9436504429
 30
0.0
  0
VERTEX
  5
5AC
  8
0
  6
CONTINUOUS
 62
     7
 10
448.9170229851
 20
-55.0877685135
 30
0.0
  0
VERTEX
  5
5AD
  8
0
  6
CONTINUOUS
 62
     7
 10
448.7202561317
 20
-55.2845443076
 30
0.0
  0
VERTEX
  5
5AE
  8
0
  6
CONTINUOUS
 62
     7
 10
448.4756863533
 20
-55.5291289872
 30
0.0
  0
VERTEX
  5
5AF
  8
0
  6
CONTINUOUS
 62
     7
 10
448.1892979561
 20
-55.815499503
 30
0.0
  0
VERTEX
  5
5B0
  8
0
  6
CONTINUOUS
 62
     7
 10
447.8681958138
 20
-56.1366076058
 30
0.0
  0
VERTEX
  5
5B1
  8
0
  6
CONTINUOUS
 62
     7
 10
447.5202715813
 20
-56.4845437592
 30
0.0
  0
VERTEX
  5
5B2
  8
0
  6
CONTINUOUS
 62
     7
 10
447.1540606438
 20
-56.8507427758
 30
0.0
  0
VERTEX
  5
5B3
  8
0
  6
CONTINUOUS
 62
     7
 10
446.7786229073
 20
-57.2261864728
 30
0.0
  0
SEQEND
  5
61E
  8
0
  6
CONTINUOUS
 62
     7
  0
LINE
  5
25A
  8
0
  6
CONTINUOUS
 62
     7
 10
363.3786237656
 20
-128.226184327
 30
0.0
 11
363.3786237656
 21
-54.8261845892
 31
0.0
  0
POLYLINE
  5
25B
  8
0
  6
CONTINUOUS
 62
     7
 66
     1
 10
0.0
 20
0.0
 30
0.0
  0
VERTEX
  5
5B4
  8
0
  6
CONTINUOUS
 62
     7
 10
363.3786237656
 20
-54.8261845892
 30
0.0
  0
VERTEX
  5
5B5
  8
0
  6
CONTINUOUS
 62
     7
 10
363.4081638275
 20
-54.8557335919
 30
0.0
  0
VERTEX
  5
5B6
  8
0
  6
CONTINUOUS
 62
     7
 10
363.4960806786
 20
-54.9436504429
 30
0.0
  0
VERTEX
  5
5B7
  8
0
  6
CONTINUOUS
 62
     7
 10
363.6402047096
 20
-55.0877685135
 30
0.0
  0
VERTEX
  5
5B8
  8
0
  6
CONTINUOUS
 62
     7
 10
363.8369834839
 20
-55.2845443076
 30
0.0
  0
VERTEX
  5
5B9
  8
0
  6
CONTINUOUS
 62
     7
 10
364.0815651833
 20
-55.5291289872
 30
0.0
  0
VERTEX
  5
5BA
  8
0
  6
CONTINUOUS
 62
     7
 10
364.3679297386
 20
-55.815499503
 30
0.0
  0
VERTEX
  5
5BB
  8
0
  6
CONTINUOUS
 62
     7
 10
364.6890438019
 20
-56.1366076058
 30
0.0
  0
VERTEX
  5
5BC
  8
0
  6
CONTINUOUS
 62
     7
 10
365.0369799553
 20
-56.4845437592
 30
0.0
  0
VERTEX
  5
5BD
  8
0
  6
CONTINUOUS
 62
     7
 10
365.4031789719
 20
-56.8507427758
 30
0.0
  0
VERTEX
  5
5BE
  8
0
  6
CONTINUOUS
 62
     7
 10
365.7786167084
 20
-57.2261864728
 30
0.0
  0
SEQEND
  5
61D
  8
0
  6
CONTINUOUS
 62
     7
  0
POLYLINE
  5
25C
  8
0
  6
CONTINUOUS
 62
     7
 66
     1
 10
0.0
 20
0.0
 30
0.0
  0
VERTEX
  5
5BF
  8
0
  6
CONTINUOUS
 62
     7
 10
365.7786167084
 20
-125.8261854237
 30
0.0
  0
VERTEX
  5
5C0
  8
0
  6
CONTINUOUS
 62
     7
 10
365.4031789719
 20
-126.2016291207
 30
0.0
  0
VERTEX
  5
5C1
  8
0
  6
CONTINUOUS
 62
     7
 10
365.0369799553
 20
-126.5678281373
 30
0.0
  0
VERTEX
  5
5C2
  8
0
  6
CONTINUOUS
 62
     7
 10
364.6890438019
 20
-126.9157642907
 30
0.0
  0
VERTEX
  5
5C3
  8
0
  6
CONTINUOUS
 62
     7
 10
364.3679297386
 20
-127.2368723935
 30
0.0
  0
VERTEX
  5
5C4
  8
0
  6
CONTINUOUS
 62
     7
 10
364.0815651833
 20
-127.5232429093
 30
0.0
  0
VERTEX
  5
5C5
  8
0
  6
CONTINUOUS
 62
     7
 10
363.8369834839
 20
-127.7678246087
 30
0.0
  0
VERTEX
  5
5C6
  8
0
  6
CONTINUOUS
 62
     7
 10
363.6402047096
 20
-127.9646033829
 30
0.0
  0
VERTEX
  5
5C7
  8
0
  6
CONTINUOUS
 62
     7
 10
363.4960806786
 20
-128.1087214535
 30
0.0
  0
VERTEX
  5
5C8
  8
0
  6
CONTINUOUS
 62
     7
 10
363.4081638275
 20
-128.1966383046
 30
0.0
  0
VERTEX
  5
5C9
  8
0
  6
CONTINUOUS
 62
     7
 10
363.3786237656
 20
-128.226184327
 30
0.0
  0
SEQEND
  5
61C
  8
0
  6
CONTINUOUS
 62
     7
  0
LINE
  5
25D
  8
0
  6
CONTINUOUS
 62
     7
 10
363.3786237656
 20
-54.8261845892
 30
0.0
 11
449.1786158501
 21
-54.8261845892
 31
0.0
  0
LINE
  5
25E
  8
0
  6
CONTINUOUS
 62
     7
 10
449.1786158501
 20
-128.226184327
 30
0.0
 11
363.3786237656
 21
-128.226184327
 31
0.0
  0
LINE
  5
25F
  8
0
  6
CONTINUOUS
 62
     7
 10
449.078623098
 20
-47.3275358265
 30
0.0
 11
449.078623098
 21
-54.8261845892
 31
0.0
  0
LINE
  5
260
  8
0
  6
CONTINUOUS
 62
     7
 10
363.4786165176
 20
-54.8261845892
 30
0.0
 11
363.4786165176
 21
-47.3275358265
 31
0.0
  0
LINE
  5
261
  8
0
  6
CONTINUOUS
 62
     7
 10
362.4786174713
 20
-56.2261844462
 30
0.0
 11
362.4786174713
 21
-61.026185233
 31
0.0
  0
LINE
  5
262
  8
0
  6
CONTINUOUS
 62
     7
 10
450.0786221443
 20
-56.2261844462
 30
0.0
 11
450.0786221443
 21
-61.026185233
 31
0.0
  0
LINE
  5
263
  8
0
  6
CONTINUOUS
 62
     7
 10
113.0786216675
 20
-49.1106609291
 30
0.0
 11
113.0786216675
 21
-56.9595182723
 31
0.0
  0
LINE
  5
264
  8
0
  6
CONTINUOUS
 62
     7
 10
27.4786150871
 20
-56.9595182723
 30
0.0
 11
27.4786150871
 21
-49.1106609291
 31
0.0
  0
ARC
  5
265
  8
0
  6
CONTINUOUS
 62
     7
 10
112.7778560438
 20
-50.1473971605
 30
0.0
 40
1.177741407383197
 50
75.204197646
 51
94.8337006722
  0
LINE
  5
266
  8
0
  6
CONTINUOUS
 62
     7
 10
113.0786216675
 20
-49.0087071842
 30
0.0
 11
113.0786216675
 21
-49.1106609291
 31
0.0
  0
ARC
  5
267
  8
0
  6
CONTINUOUS
 62
     7
 10
27.7793757682
 20
-50.1473743838
 30
0.0
 40
1.177718123622249
 50
85.1665442406
 51
104.7958528451
  0
LINE
  5
268
  8
0
  6
CONTINUOUS
 62
     7
 10
27.4786150871
 20
-49.1106609291
 30
0.0
 11
27.4786150871
 21
-49.0087071842
 31
0.0
  0
LINE
  5
269
  8
0
  6
CONTINUOUS
 62
     7
 10
27.8786099373
 20
-48.9738444274
 30
0.0
 11
27.3786223351
 21
-48.9738444274
 31
0.0
  0
LINE
  5
26A
  8
0
  6
CONTINUOUS
 62
     7
 10
27.4786150871
 20
-55.3710753506
 30
0.0
 11
27.3786223351
 21
-55.3710753506
 31
0.0
  0
LINE
  5
26B
  8
0
  6
CONTINUOUS
 62
     7
 10
27.3786223351
 20
-48.9738444274
 30
0.0
 11
27.3786223351
 21
-55.3710753506
 31
0.0
  0
LINE
  5
26C
  8
0
  6
CONTINUOUS
 62
     7
 10
113.1786144196
 20
-48.9738444274
 30
0.0
 11
112.6786148964
 21
-48.9738444274
 31
0.0
  0
LINE
  5
26D
  8
0
  6
CONTINUOUS
 62
     7
 10
113.1786144196
 20
-48.9738444274
 30
0.0
 11
113.1786144196
 21
-55.3710753506
 31
0.0
  0
LINE
  5
26E
  8
0
  6
CONTINUOUS
 62
     7
 10
113.1786144196
 20
-55.3710753506
 30
0.0
 11
113.0786216675
 21
-55.3710753506
 31
0.0
  0
LINE
  5
26F
  8
0
  6
CONTINUOUS
 62
     7
 10
113.1786144196
 20
-44.789826352
 30
0.0
 11
113.1786144196
 21
-48.9738444274
 31
0.0
  0
LINE
  5
270
  8
0
  6
CONTINUOUS
 62
     7
 10
27.3786223351
 20
-44.789826352
 30
0.0
 11
27.3786223351
 21
-48.9738444274
 31
0.0
  0
ARC
  5
271
  8
0
  6
CONTINUOUS
 62
     7
 10
111.0146347449
 20
-44.762980793
 30
0.0
 40
2.164146186437532
 50
359.2892454833
 51
90.7105206938
  0
ARC
  5
272
  8
0
  6
CONTINUOUS
 62
     7
 10
29.5426051022
 20
-44.7629837394
 30
0.0
 40
2.164149242121921
 50
89.2892465584
 51
180.7106755009
  0
LINE
  5
273
  8
0
  6
CONTINUOUS
 62
     7
 10
27.4786150871
 20
-64.1274745053
 30
0.0
 11
27.4786150871
 21
-56.9595182723
 31
0.0
  0
LINE
  5
274
  8
0
  6
CONTINUOUS
 62
     7
 10
113.0786216675
 20
-56.9595182723
 30
0.0
 11
113.0786216675
 21
-64.1274745053
 31
0.0
  0
LINE
  5
275
  8
0
  6
CONTINUOUS
 62
     7
 10
26.4786160408
 20
-56.2261844462
 30
0.0
 11
26.4786160408
 21
-61.026185233
 31
0.0
  0
LINE
  5
276
  8
0
  6
CONTINUOUS
 62
     7
 10
114.0786207138
 20
-56.2261844462
 30
0.0
 11
114.0786207138
 21
-61.026185233
 31
0.0
  0
LINE
  5
277
  8
0
  6
CONTINUOUS
 62
     7
 10
139.4786215244
 20
-56.9595182723
 30
0.0
 11
139.4786215244
 21
-49.1106609291
 31
0.0
  0
LINE
  5
278
  8
0
  6
CONTINUOUS
 62
     7
 10
225.0786191641
 20
-49.1106609291
 30
0.0
 11
225.0786191641
 21
-56.9595182723
 31
0.0
  0
ARC
  5
279
  8
0
  6
CONTINUOUS
 62
     7
 10
224.777856556
 20
-50.1473795268
 30
0.0
 40
1.177723588195628
 50
75.2041204123
 51
94.8336302062
  0
LINE
  5
27A
  8
0
  6
CONTINUOUS
 62
     7
 10
225.0786191641
 20
-49.0087071842
 30
0.0
 11
225.0786191641
 21
-49.1106609291
 31
0.0
  0
ARC
  5
27B
  8
0
  6
CONTINUOUS
 62
     7
 10
139.7793782611
 20
-50.1473291284
 30
0.0
 40
1.177673361582543
 50
85.1661675043
 51
104.7962295813
  0
LINE
  5
27C
  8
0
  6
CONTINUOUS
 62
     7
 10
139.4786215244
 20
-49.1106609291
 30
0.0
 11
139.4786215244
 21
-49.0087071842
 31
0.0
  0
LINE
  5
27D
  8
0
  6
CONTINUOUS
 62
     7
 10
225.1786193667
 20
-48.9738444274
 30
0.0
 11
224.6786183535
 21
-48.9738444274
 31
0.0
  0
LINE
  5
27E
  8
0
  6
CONTINUOUS
 62
     7
 10
225.1786193667
 20
-55.3710753506
 30
0.0
 11
225.0786191641
 21
-55.3710753506
 31
0.0
  0
LINE
  5
27F
  8
0
  6
CONTINUOUS
 62
     7
 10
225.1786193667
 20
-48.9738444274
 30
0.0
 11
225.1786193667
 21
-55.3710753506
 31
0.0
  0
LINE
  5
280
  8
0
  6
CONTINUOUS
 62
     7
 10
139.8786163746
 20
-48.9738444274
 30
0.0
 11
139.3786168514
 21
-48.9738444274
 31
0.0
  0
LINE
  5
281
  8
0
  6
CONTINUOUS
 62
     7
 10
139.3786168514
 20
-44.789826352
 30
0.0
 11
139.3786168514
 21
-48.9738444274
 31
0.0
  0
LINE
  5
282
  8
0
  6
CONTINUOUS
 62
     7
 10
225.1786193667
 20
-44.789826352
 30
0.0
 11
225.1786193667
 21
-48.9738444274
 31
0.0
  0
LINE
  5
283
  8
0
  6
CONTINUOUS
 62
     7
 10
139.4786215244
 20
-55.3710753506
 30
0.0
 11
139.3786168514
 21
-55.3710753506
 31
0.0
  0
LINE
  5
284
  8
0
  6
CONTINUOUS
 62
     7
 10
139.3786168514
 20
-48.9738444274
 30
0.0
 11
139.3786168514
 21
-55.3710753506
 31
0.0
  0
ARC
  5
285
  8
0
  6
CONTINUOUS
 62
     7
 10
141.5426154526
 20
-44.7629995736
 30
0.0
 40
2.164164878665019
 50
89.2896709304
 51
180.7102511289
  0
ARC
  5
286
  8
0
  6
CONTINUOUS
 62
     7
 10
223.0146284413
 20
-44.7629919161
 30
0.0
 40
2.164157298478755
 50
359.2895436372
 51
90.7104953332
  0
LINE
  5
287
  8
0
  6
CONTINUOUS
 62
     7
 10
225.0786191641
 20
-56.9595182723
 30
0.0
 11
225.0786191641
 21
-64.1274745053
 31
0.0
  0
LINE
  5
288
  8
0
  6
CONTINUOUS
 62
     7
 10
139.4786215244
 20
-64.1274745053
 30
0.0
 11
139.4786215244
 21
-56.9595182723
 31
0.0
  0
LINE
  5
289
  8
0
  6
CONTINUOUS
 62
     7
 10
226.0786189555
 20
-56.2261844462
 30
0.0
 11
226.0786189555
 21
-61.026185233
 31
0.0
  0
LINE
  5
28A
  8
0
  6
CONTINUOUS
 62
     7
 10
138.4786165176
 20
-56.2261844462
 30
0.0
 11
138.4786165176
 21
-61.026185233
 31
0.0
  0
LINE
  5
28B
  8
0
  6
CONTINUOUS
 62
     7
 10
251.478619021
 20
-56.9595182723
 30
0.0
 11
251.478619021
 21
-49.1106609291
 31
0.0
  0
LINE
  5
28C
  8
0
  6
CONTINUOUS
 62
     7
 10
337.0786166607
 20
-49.1106609291
 30
0.0
 11
337.0786166607
 21
-56.9595182723
 31
0.0
  0
ARC
  5
28D
  8
0
  6
CONTINUOUS
 62
     7
 10
336.777859924
 20
-50.1473291284
 30
0.0
 40
1.177673361582213
 50
75.2037704187
 51
94.8338324957
  0
LINE
  5
28E
  8
0
  6
CONTINUOUS
 62
     7
 10
337.0786166607
 20
-49.0087071842
 30
0.0
 11
337.0786166607
 21
-49.1106609291
 31
0.0
  0
ARC
  5
28F
  8
0
  6
CONTINUOUS
 62
     7
 10
251.7793816291
 20
-50.1473795268
 30
0.0
 40
1.1777235881958
 50
85.1663697938
 51
104.7958795877
  0
LINE
  5
290
  8
0
  6
CONTINUOUS
 62
     7
 10
251.478619021
 20
-49.1106609291
 30
0.0
 11
251.478619021
 21
-49.0087071842
 31
0.0
  0
LINE
  5
291
  8
0
  6
CONTINUOUS
 62
     7
 10
337.1786213337
 20
-48.9738444274
 30
0.0
 11
336.6786218105
 21
-48.9738444274
 31
0.0
  0
LINE
  5
292
  8
0
  6
CONTINUOUS
 62
     7
 10
251.8786198317
 20
-48.9738444274
 30
0.0
 11
251.3786188184
 21
-48.9738444274
 31
0.0
  0
LINE
  5
293
  8
0
  6
CONTINUOUS
 62
     7
 10
337.1786213337
 20
-44.789826352
 30
0.0
 11
337.1786213337
 21
-48.9738444274
 31
0.0
  0
LINE
  5
294
  8
0
  6
CONTINUOUS
 62
     7
 10
251.3786188184
 20
-44.789826352
 30
0.0
 11
251.3786188184
 21
-48.9738444274
 31
0.0
  0
LINE
  5
295
  8
0
  6
CONTINUOUS
 62
     7
 10
251.478619021
 20
-55.3710753506
 30
0.0
 11
251.3786188184
 21
-55.3710753506
 31
0.0
  0
LINE
  5
296
  8
0
  6
CONTINUOUS
 62
     7
 10
251.3786188184
 20
-48.9738444274
 30
0.0
 11
251.3786188184
 21
-55.3710753506
 31
0.0
  0
LINE
  5
297
  8
0
  6
CONTINUOUS
 62
     7
 10
337.1786213337
 20
-55.3710753506
 30
0.0
 11
337.0786166607
 21
-55.3710753506
 31
0.0
  0
LINE
  5
298
  8
0
  6
CONTINUOUS
 62
     7
 10
337.1786213337
 20
-48.9738444274
 30
0.0
 11
337.1786213337
 21
-55.3710753506
 31
0.0
  0
ARC
  5
299
  8
0
  6
CONTINUOUS
 62
     7
 10
253.5426097439
 20
-44.7629919161
 30
0.0
 40
2.164157298478782
 50
89.2895046668
 51
180.7104563628
  0
ARC
  5
29A
  8
0
  6
CONTINUOUS
 62
     7
 10
335.0146227325
 20
-44.7629995736
 30
0.0
 40
2.164164878665018
 50
359.2897488711
 51
90.7103290696
  0
LINE
  5
29B
  8
0
  6
CONTINUOUS
 62
     7
 10
251.478619021
 20
-64.1274745053
 30
0.0
 11
251.478619021
 21
-56.9595182723
 31
0.0
  0
LINE
  5
29C
  8
0
  6
CONTINUOUS
 62
     7
 10
337.0786166607
 20
-56.9595182723
 30
0.0
 11
337.0786166607
 21
-64.1274745053
 31
0.0
  0
LINE
  5
29D
  8
0
  6
CONTINUOUS
 62
     7
 10
338.0786216675
 20
-56.2261844462
 30
0.0
 11
338.0786216675
 21
-61.026185233
 31
0.0
  0
LINE
  5
29E
  8
0
  6
CONTINUOUS
 62
     7
 10
250.4786192297
 20
-56.2261844462
 30
0.0
 11
250.4786192297
 21
-61.026185233
 31
0.0
  0
ARC
  5
29F
  8
0
  6
CONTINUOUS
 62
     7
 10
335.8664473577
 20
-35.8050700477
 30
0.0
 40
2.21246014656547
 50
275.5030010018
 51
359.0789915641
  0
LINE
  5
2A0
  8
0
  6
CONTINUOUS
 62
     7
 10
338.0786216675
 20
-35.8406329936
 30
0.0
 11
338.0786216675
 21
-35.8667875117
 31
0.0
  0
LINE
  5
2A1
  8
0
  6
CONTINUOUS
 62
     7
 10
338.0786216675
 20
-40.5878970808
 30
0.0
 11
338.0786216675
 21
-45.6892321294
 31
0.0
  0
ARC
  5
2A2
  8
0
  6
CONTINUOUS
 62
     7
 10
336.2770591171
 20
-45.7148073912
 30
0.0
 40
1.801744076433283
 50
300.0253463675
 51
0.8133251517
  0
ARC
  5
2A3
  8
0
  6
CONTINUOUS
 62
     7
 10
252.6914665252
 20
-35.8044492044
 30
0.0
 40
2.21314310881174
 50
180.9367992377
 51
264.4811018159
  0
LINE
  5
2A4
  8
0
  6
CONTINUOUS
 62
     7
 10
250.4786192297
 20
-45.6892321294
 30
0.0
 11
250.4786192297
 21
-35.8406329936
 31
0.0
  0
ARC
  5
2A5
  8
0
  6
CONTINUOUS
 62
     7
 10
252.2801626648
 20
-45.7148186653
 30
0.0
 40
1.801725123188372
 50
179.1863077342
 51
239.9749800208
  0
LINE
  5
2A6
  8
0
  6
CONTINUOUS
 62
     7
 10
338.0786216675
 20
-31.2581370061
 30
0.0
 11
250.4786192297
 21
-31.2581370061
 31
0.0
  0
LINE
  5
2A7
  8
0
  6
CONTINUOUS
 62
     7
 10
250.4786192297
 20
-35.8406329936
 30
0.0
 11
250.4786192297
 21
-31.2581370061
 31
0.0
  0
LINE
  5
2A8
  8
0
  6
CONTINUOUS
 62
     7
 10
338.0786216675
 20
-35.8406329936
 30
0.0
 11
338.0786216675
 21
-31.2581370061
 31
0.0
  0
LINE
  5
2A9
  8
0
  6
CONTINUOUS
 62
     7
 10
338.17862038
 20
-28.6261851376
 30
0.0
 11
250.378619027
 21
-28.6261851376
 31
0.0
  0
LINE
  5
2AA
  8
0
  6
CONTINUOUS
 62
     7
 10
338.17862038
 20
-28.6261851376
 30
0.0
 11
338.17862038
 21
-31.2494215032
 31
0.0
  0
LINE
  5
2AB
  8
0
  6
CONTINUOUS
 62
     7
 10
338.17862038
 20
-31.2494215032
 30
0.0
 11
250.378619027
 21
-31.2494215032
 31
0.0
  0
LINE
  5
2AC
  8
0
  6
CONTINUOUS
 62
     7
 10
250.378619027
 20
-28.6261851376
 30
0.0
 11
250.378619027
 21
-31.2494215032
 31
0.0
  0
LINE
  5
2AD
  8
0
  6
CONTINUOUS
 62
     7
 10
250.4786192297
 20
-41.2461856788
 30
0.0
 11
250.378619027
 21
-41.2461856788
 31
0.0
  0
LINE
  5
2AE
  8
0
  6
CONTINUOUS
 62
     7
 10
338.17862038
 20
-41.2461856788
 30
0.0
 11
338.0786216675
 21
-41.2461856788
 31
0.0
  0
LINE
  5
2AF
  8
0
  6
CONTINUOUS
 62
     7
 10
338.17862038
 20
-31.2494215032
 30
0.0
 11
338.17862038
 21
-31.2612325361
 31
0.0
  0
LINE
  5
2B0
  8
0
  6
CONTINUOUS
 62
     7
 10
250.378619027
 20
-31.2494215032
 30
0.0
 11
250.378619027
 21
-35.628310073
 31
0.0
  0
LINE
  5
2B1
  8
0
  6
CONTINUOUS
 62
     7
 10
338.17862038
 20
-49.4027072972
 30
0.0
 11
338.17862038
 21
-48.9948893374
 31
0.0
  0
LINE
  5
2B2
  8
0
  6
CONTINUOUS
 62
     7
 10
250.378619027
 20
-48.9948893374
 30
0.0
 11
250.378619027
 21
-49.4027072972
 31
0.0
  0
LINE
  5
2B3
  8
0
  6
CONTINUOUS
 62
     7
 10
249.5786188959
 20
-49.4027072972
 30
0.0
 11
249.5786188959
 21
-48.9948893374
 31
0.0
  0
LINE
  5
2B4
  8
0
  6
CONTINUOUS
 62
     7
 10
250.378619027
 20
-48.9948893374
 30
0.0
 11
250.378619027
 21
-35.628310073
 31
0.0
  0
LINE
  5
2B5
  8
0
  6
CONTINUOUS
 62
     7
 10
249.5786188959
 20
-48.9948893374
 30
0.0
 11
249.5786188959
 21
-40.9863749927
 31
0.0
  0
LINE
  5
2B6
  8
0
  6
CONTINUOUS
 62
     7
 10
249.5786188959
 20
-29.3869929331
 30
0.0
 11
249.5786188959
 21
-28.6261851376
 31
0.0
  0
LINE
  5
2B7
  8
0
  6
CONTINUOUS
 62
     7
 10
249.5786188959
 20
-28.6261851376
 30
0.0
 11
250.378619027
 21
-28.6261851376
 31
0.0
  0
LINE
  5
2B8
  8
0
  6
CONTINUOUS
 62
     7
 10
338.9786160408
 20
-28.6261851376
 30
0.0
 11
338.9786160408
 21
-29.3869929331
 31
0.0
  0
LINE
  5
2B9
  8
0
  6
CONTINUOUS
 62
     7
 10
338.17862038
 20
-40.8514650947
 30
0.0
 11
338.17862038
 21
-48.9948893374
 31
0.0
  0
LINE
  5
2BA
  8
0
  6
CONTINUOUS
 62
     7
 10
338.9786160408
 20
-28.6261851376
 30
0.0
 11
338.17862038
 21
-28.6261851376
 31
0.0
  0
LINE
  5
2BB
  8
0
  6
CONTINUOUS
 62
     7
 10
338.17862038
 20
-49.4027072972
 30
0.0
 11
338.17862038
 21
-56.3278342074
 31
0.0
  0
LINE
  5
2BC
  8
0
  6
CONTINUOUS
 62
     7
 10
250.378619027
 20
-56.3278342074
 30
0.0
 11
250.378619027
 21
-49.4027072972
 31
0.0
  0
LINE
  5
2BD
  8
0
  6
CONTINUOUS
 62
     7
 10
249.5786188959
 20
-56.3278342074
 30
0.0
 11
249.5786188959
 21
-49.4027072972
 31
0.0
  0
LINE
  5
2BE
  8
0
  6
CONTINUOUS
 62
     7
 10
250.378619027
 20
-56.3278342074
 30
0.0
 11
250.378619027
 21
-56.786697585
 31
0.0
  0
LINE
  5
2BF
  8
0
  6
CONTINUOUS
 62
     7
 10
249.5786188959
 20
-56.786697585
 30
0.0
 11
249.5786188959
 21
-56.3278342074
 31
0.0
  0
LINE
  5
2C0
  8
0
  6
CONTINUOUS
 62
     7
 10
338.17862038
 20
-56.786697585
 30
0.0
 11
338.17862038
 21
-56.3278342074
 31
0.0
  0
LINE
  5
2C1
  8
0
  6
CONTINUOUS
 62
     7
 10
348.2786214767
 20
-28.6261851376
 30
0.0
 11
348.2786214767
 21
-29.3869929331
 31
0.0
  0
LINE
  5
2C2
  8
0
  6
CONTINUOUS
 62
     7
 10
346.2786233841
 20
-28.6261851376
 30
0.0
 11
348.2786214767
 21
-28.6261851376
 31
0.0
  0
LINE
  5
2C3
  8
0
  6
CONTINUOUS
 62
     7
 10
338.9786160408
 20
-28.6261851376
 30
0.0
 11
346.2786233841
 21
-28.6261851376
 31
0.0
  0
LINE
  5
2C4
  8
0
  6
CONTINUOUS
 62
     7
 10
240.2786190479
 20
-29.3869929331
 30
0.0
 11
240.2786190479
 21
-28.6261851376
 31
0.0
  0
LINE
  5
2C5
  8
0
  6
CONTINUOUS
 62
     7
 10
240.2786190479
 20
-28.6261851376
 30
0.0
 11
242.2786190032
 21
-28.6261851376
 31
0.0
  0
LINE
  5
2C6
  8
0
  6
CONTINUOUS
 62
     7
 10
242.2786190032
 20
-28.6261851376
 30
0.0
 11
249.5786188959
 21
-28.6261851376
 31
0.0
  0
LINE
  5
2C7
  8
0
  6
CONTINUOUS
 62
     7
 10
250.378619027
 20
-63.8694132155
 30
0.0
 11
250.378619027
 21
-56.786697585
 31
0.0
  0
LINE
  5
2C8
  8
0
  6
CONTINUOUS
 62
     7
 10
249.5786188959
 20
-63.8694132155
 30
0.0
 11
249.5786188959
 21
-56.786697585
 31
0.0
  0
LINE
  5
2C9
  8
0
  6
CONTINUOUS
 62
     7
 10
338.17862038
 20
-56.786697585
 30
0.0
 11
338.17862038
 21
-63.8694132155
 31
0.0
  0
LINE
  5
2CA
  8
0
  6
CONTINUOUS
 62
     7
 10
238.2786190926
 20
-29.3869929331
 30
0.0
 11
238.2786190926
 21
-28.6261851376
 31
0.0
  0
LINE
  5
2CB
  8
0
  6
CONTINUOUS
 62
     7
 10
238.2786190926
 20
-28.6261851376
 30
0.0
 11
240.2786190479
 21
-28.6261851376
 31
0.0
  0
LINE
  5
2CC
  8
0
  6
CONTINUOUS
 62
     7
 10
350.2786195694
 20
-29.3869929331
 30
0.0
 11
350.2786195694
 21
-28.6261851376
 31
0.0
  0
LINE
  5
2CD
  8
0
  6
CONTINUOUS
 62
     7
 10
348.2786214767
 20
-28.6261851376
 30
0.0
 11
350.2786195694
 21
-28.6261851376
 31
0.0
  0
LINE
  5
2CE
  8
0
  6
CONTINUOUS
 62
     7
 10
338.17862038
 20
-63.8724590128
 30
0.0
 11
338.17862038
 21
-63.8694132155
 31
0.0
  0
LINE
  5
2CF
  8
0
  6
CONTINUOUS
 62
     7
 10
250.378619027
 20
-63.8694132155
 30
0.0
 11
250.378619027
 21
-63.8724590128
 31
0.0
  0
LINE
  5
2D0
  8
0
  6
CONTINUOUS
 62
     7
 10
249.5786188959
 20
-63.8724590128
 30
0.0
 11
249.5786188959
 21
-63.8694132155
 31
0.0
  0
ARC
  5
2D1
  8
0
  6
CONTINUOUS
 62
     7
 10
28.6914586479
 20
-35.8044537518
 30
0.0
 40
2.213138346614836
 50
180.9366835124
 51
264.4811537128
  0
ARC
  5
2D2
  8
0
  6
CONTINUOUS
 62
     7
 10
111.8664496788
 20
-35.8050736542
 30
0.0
 40
2.212456814219994
 50
275.5030791883
 51
359.0790835865
  0
LINE
  5
2D3
  8
0
  6
CONTINUOUS
 62
     7
 10
114.0786207138
 20
-35.8406329936
 30
0.0
 11
114.0786207138
 21
-35.8667875117
 31
0.0
  0
LINE
  5
2D4
  8
0
  6
CONTINUOUS
 62
     7
 10
114.0786207138
 20
-40.5878970808
 30
0.0
 11
114.0786207138
 21
-45.6892321294
 31
0.0
  0
ARC
  5
2D5
  8
0
  6
CONTINUOUS
 62
     7
 10
112.2771071735
 20
-45.7148318219
 30
0.0
 40
1.801695418233389
 50
300.0242215958
 51
0.8141241188
  0
LINE
  5
2D6
  8
0
  6
CONTINUOUS
 62
     7
 10
26.4786160408
 20
-45.6892321294
 30
0.0
 11
26.4786160408
 21
-35.8406329936
 31
0.0
  0
ARC
  5
2D7
  8
0
  6
CONTINUOUS
 62
     7
 10
28.2801943387
 20
-45.7147950631
 30
0.0
 40
1.801759647415706
 50
179.1870739489
 51
239.9745803366
  0
LINE
  5
2D8
  8
0
  6
CONTINUOUS
 62
     7
 10
114.0786207138
 20
-31.2581370061
 30
0.0
 11
26.4786160408
 21
-31.2581370061
 31
0.0
  0
LINE
  5
2D9
  8
0
  6
CONTINUOUS
 62
     7
 10
114.0786207138
 20
-35.8406329936
 30
0.0
 11
114.0786207138
 21
-31.2581370061
 31
0.0
  0
LINE
  5
2DA
  8
0
  6
CONTINUOUS
 62
     7
 10
26.4786160408
 20
-35.8406329936
 30
0.0
 11
26.4786160408
 21
-31.2581370061
 31
0.0
  0
LINE
  5
2DB
  8
0
  6
CONTINUOUS
 62
     7
 10
114.1786134659
 20
-28.6261851376
 30
0.0
 11
26.3786232887
 21
-28.6261851376
 31
0.0
  0
LINE
  5
2DC
  8
0
  6
CONTINUOUS
 62
     7
 10
114.1786134659
 20
-31.2494215032
 30
0.0
 11
26.3786232887
 21
-31.2494215032
 31
0.0
  0
LINE
  5
2DD
  8
0
  6
CONTINUOUS
 62
     7
 10
26.3786232887
 20
-28.6261851376
 30
0.0
 11
26.3786232887
 21
-31.2494215032
 31
0.0
  0
LINE
  5
2DE
  8
0
  6
CONTINUOUS
 62
     7
 10
114.1786134659
 20
-28.6261851376
 30
0.0
 11
114.1786134659
 21
-31.2494215032
 31
0.0
  0
LINE
  5
2DF
  8
0
  6
CONTINUOUS
 62
     7
 10
26.4786160408
 20
-41.2461856788
 30
0.0
 11
26.3786232887
 21
-41.2461856788
 31
0.0
  0
LINE
  5
2E0
  8
0
  6
CONTINUOUS
 62
     7
 10
26.3786232887
 20
-31.2494215032
 30
0.0
 11
26.3786232887
 21
-35.628310073
 31
0.0
  0
LINE
  5
2E1
  8
0
  6
CONTINUOUS
 62
     7
 10
114.1786134659
 20
-41.2461856788
 30
0.0
 11
114.0786207138
 21
-41.2461856788
 31
0.0
  0
LINE
  5
2E2
  8
0
  6
CONTINUOUS
 62
     7
 10
114.1786134659
 20
-31.2494215032
 30
0.0
 11
114.1786134659
 21
-31.2612325361
 31
0.0
  0
LINE
  5
2E3
  8
0
  6
CONTINUOUS
 62
     7
 10
114.1786134659
 20
-49.4027072972
 30
0.0
 11
114.1786134659
 21
-48.9948893374
 31
0.0
  0
LINE
  5
2E4
  8
0
  6
CONTINUOUS
 62
     7
 10
26.3786232887
 20
-48.9948893374
 30
0.0
 11
26.3786232887
 21
-49.4027072972
 31
0.0
  0
LINE
  5
2E5
  8
0
  6
CONTINUOUS
 62
     7
 10
25.5786097466
 20
-28.6610474345
 30
0.0
 11
25.5786097466
 21
-28.6261851376
 31
0.0
  0
LINE
  5
2E6
  8
0
  6
CONTINUOUS
 62
     7
 10
26.3786232887
 20
-48.9948893374
 30
0.0
 11
26.3786232887
 21
-35.628310073
 31
0.0
  0
LINE
  5
2E7
  8
0
  6
CONTINUOUS
 62
     7
 10
25.5786097466
 20
-28.6261851376
 30
0.0
 11
26.3786232887
 21
-28.6261851376
 31
0.0
  0
LINE
  5
2E8
  8
0
  6
CONTINUOUS
 62
     7
 10
114.1786134659
 20
-40.8514650947
 30
0.0
 11
114.1786134659
 21
-48.9948893374
 31
0.0
  0
LINE
  5
2E9
  8
0
  6
CONTINUOUS
 62
     7
 10
114.9786150871
 20
-28.6261851376
 30
0.0
 11
114.9786150871
 21
-29.3869929331
 31
0.0
  0
LINE
  5
2EA
  8
0
  6
CONTINUOUS
 62
     7
 10
114.9786150871
 20
-28.6261851376
 30
0.0
 11
114.1786134659
 21
-28.6261851376
 31
0.0
  0
LINE
  5
2EB
  8
0
  6
CONTINUOUS
 62
     7
 10
114.1786134659
 20
-49.4027072972
 30
0.0
 11
114.1786134659
 21
-56.3278342074
 31
0.0
  0
LINE
  5
2EC
  8
0
  6
CONTINUOUS
 62
     7
 10
26.3786232887
 20
-56.3278342074
 30
0.0
 11
26.3786232887
 21
-49.4027072972
 31
0.0
  0
LINE
  5
2ED
  8
0
  6
CONTINUOUS
 62
     7
 10
26.3786232887
 20
-56.3278342074
 30
0.0
 11
26.3786232887
 21
-56.786697585
 31
0.0
  0
LINE
  5
2EE
  8
0
  6
CONTINUOUS
 62
     7
 10
114.1786134659
 20
-56.786697585
 30
0.0
 11
114.1786134659
 21
-56.3278342074
 31
0.0
  0
LINE
  5
2EF
  8
0
  6
CONTINUOUS
 62
     7
 10
25.1786148964
 20
-28.6261851376
 30
0.0
 11
25.5786097466
 21
-28.6261851376
 31
0.0
  0
LINE
  5
2F0
  8
0
  6
CONTINUOUS
 62
     7
 10
114.9786150871
 20
-28.6261851376
 30
0.0
 11
122.2786224304
 21
-28.6261851376
 31
0.0
  0
LINE
  5
2F1
  8
0
  6
CONTINUOUS
 62
     7
 10
124.2786205231
 20
-28.6261851376
 30
0.0
 11
124.2786205231
 21
-29.3869929331
 31
0.0
  0
LINE
  5
2F2
  8
0
  6
CONTINUOUS
 62
     7
 10
122.2786224304
 20
-28.6261851376
 30
0.0
 11
124.2786205231
 21
-28.6261851376
 31
0.0
  0
LINE
  5
2F3
  8
0
  6
CONTINUOUS
 62
     7
 10
26.3786232887
 20
-63.8694132155
 30
0.0
 11
26.3786232887
 21
-56.786697585
 31
0.0
  0
LINE
  5
2F4
  8
0
  6
CONTINUOUS
 62
     7
 10
114.1786134659
 20
-56.786697585
 30
0.0
 11
114.1786134659
 21
-63.8694132155
 31
0.0
  0
LINE
  5
2F5
  8
0
  6
CONTINUOUS
 62
     7
 10
126.2786186157
 20
-29.3869929331
 30
0.0
 11
126.2786186157
 21
-28.6261851376
 31
0.0
  0
LINE
  5
2F6
  8
0
  6
CONTINUOUS
 62
     7
 10
124.2786205231
 20
-28.6261851376
 30
0.0
 11
126.2786186157
 21
-28.6261851376
 31
0.0
  0
LINE
  5
2F7
  8
0
  6
CONTINUOUS
 62
     7
 10
26.3786232887
 20
-63.8694132155
 30
0.0
 11
26.3786232887
 21
-63.8724590128
 31
0.0
  0
LINE
  5
2F8
  8
0
  6
CONTINUOUS
 62
     7
 10
114.1786134659
 20
-63.8724590128
 30
0.0
 11
114.1786134659
 21
-63.8694132155
 31
0.0
  0
ARC
  5
2F9
  8
0
  6
CONTINUOUS
 62
     7
 10
364.6914669618
 20
-35.804447398
 30
0.0
 40
2.213145332971189
 50
180.9368450698
 51
264.4809921554
  0
ARC
  5
2FA
  8
0
  6
CONTINUOUS
 62
     7
 10
447.8664487357
 20
-35.8050714632
 30
0.0
 40
2.212459222781142
 50
275.5031349337
 51
359.0790278411
  0
LINE
  5
2FB
  8
0
  6
CONTINUOUS
 62
     7
 10
450.0786221443
 20
-35.8406329936
 30
0.0
 11
450.0786221443
 21
-45.6892321294
 31
0.0
  0
ARC
  5
2FC
  8
0
  6
CONTINUOUS
 62
     7
 10
448.2712977552
 20
-45.710162663
 30
0.0
 40
1.807445582793499
 50
263.8806426154
 51
0.6635099011
  0
LINE
  5
2FD
  8
0
  6
CONTINUOUS
 62
     7
 10
362.4786174713
 20
-45.6892321294
 30
0.0
 11
362.4786174713
 21
-35.8406329936
 31
0.0
  0
ARC
  5
2FE
  8
0
  6
CONTINUOUS
 62
     7
 10
364.2865091118
 20
-45.7095386512
 30
0.0
 40
1.808005679875041
 50
179.3564719009
 51
276.0993755825
  0
LINE
  5
2FF
  8
0
  6
CONTINUOUS
 62
     7
 10
450.0786221443
 20
-31.2581370061
 30
0.0
 11
362.4786174713
 21
-31.2581370061
 31
0.0
  0
LINE
  5
300
  8
0
  6
CONTINUOUS
 62
     7
 10
450.0786221443
 20
-35.8406329936
 30
0.0
 11
450.0786221443
 21
-31.2581370061
 31
0.0
  0
LINE
  5
301
  8
0
  6
CONTINUOUS
 62
     7
 10
362.4786174713
 20
-35.8406329936
 30
0.0
 11
362.4786174713
 21
-31.2581370061
 31
0.0
  0
LINE
  5
302
  8
0
  6
CONTINUOUS
 62
     7
 10
362.4786174713
 20
-41.2461856788
 30
0.0
 11
362.3786247192
 21
-41.2461856788
 31
0.0
  0
LINE
  5
303
  8
0
  6
CONTINUOUS
 62
     7
 10
362.3786247192
 20
-31.2494215032
 30
0.0
 11
362.3786247192
 21
-35.628310073
 31
0.0
  0
LINE
  5
304
  8
0
  6
CONTINUOUS
 62
     7
 10
450.1786148964
 20
-31.2494215032
 30
0.0
 11
362.3786247192
 21
-31.2494215032
 31
0.0
  0
LINE
  5
305
  8
0
  6
CONTINUOUS
 62
     7
 10
450.1786148964
 20
-31.2494215032
 30
0.0
 11
450.1786148964
 21
-35.628310073
 31
0.0
  0
LINE
  5
306
  8
0
  6
CONTINUOUS
 62
     7
 10
450.1786148964
 20
-41.2461856788
 30
0.0
 11
450.0786221443
 21
-41.2461856788
 31
0.0
  0
LINE
  5
307
  8
0
  6
CONTINUOUS
 62
     7
 10
450.1786148964
 20
-28.6261851376
 30
0.0
 11
362.3786247192
 21
-28.6261851376
 31
0.0
  0
LINE
  5
308
  8
0
  6
CONTINUOUS
 62
     7
 10
450.1786148964
 20
-28.6261851376
 30
0.0
 11
450.1786148964
 21
-31.2494215032
 31
0.0
  0
LINE
  5
309
  8
0
  6
CONTINUOUS
 62
     7
 10
362.3786247192
 20
-28.6261851376
 30
0.0
 11
362.3786247192
 21
-31.2494215032
 31
0.0
  0
LINE
  5
30A
  8
0
  6
CONTINUOUS
 62
     7
 10
361.578623098
 20
-49.4027072972
 30
0.0
 11
361.578623098
 21
-48.9948893374
 31
0.0
  0
LINE
  5
30B
  8
0
  6
CONTINUOUS
 62
     7
 10
362.3786247192
 20
-48.9948893374
 30
0.0
 11
362.3786247192
 21
-49.4027072972
 31
0.0
  0
LINE
  5
30C
  8
0
  6
CONTINUOUS
 62
     7
 10
450.1786148964
 20
-49.4027072972
 30
0.0
 11
450.1786148964
 21
-48.9948893374
 31
0.0
  0
LINE
  5
30D
  8
0
  6
CONTINUOUS
 62
     7
 10
361.578623098
 20
-48.9948893374
 30
0.0
 11
361.578623098
 21
-40.9863749927
 31
0.0
  0
LINE
  5
30E
  8
0
  6
CONTINUOUS
 62
     7
 10
361.578623098
 20
-29.3869929331
 30
0.0
 11
361.578623098
 21
-28.6261851376
 31
0.0
  0
LINE
  5
30F
  8
0
  6
CONTINUOUS
 62
     7
 10
362.3786247192
 20
-48.9948893374
 30
0.0
 11
362.3786247192
 21
-35.628310073
 31
0.0
  0
LINE
  5
310
  8
0
  6
CONTINUOUS
 62
     7
 10
361.578623098
 20
-28.6261851376
 30
0.0
 11
362.3786247192
 21
-28.6261851376
 31
0.0
  0
LINE
  5
311
  8
0
  6
CONTINUOUS
 62
     7
 10
450.1786148964
 20
-35.628310073
 30
0.0
 11
450.1786148964
 21
-48.9948893374
 31
0.0
  0
LINE
  5
312
  8
0
  6
CONTINUOUS
 62
     7
 10
450.9786284386
 20
-28.6261851376
 30
0.0
 11
450.9786284386
 21
-28.6610474345
 31
0.0
  0
LINE
  5
313
  8
0
  6
CONTINUOUS
 62
     7
 10
450.9786284386
 20
-28.6261851376
 30
0.0
 11
450.1786148964
 21
-28.6261851376
 31
0.0
  0
LINE
  5
314
  8
0
  6
CONTINUOUS
 62
     7
 10
361.578623098
 20
-56.3278342074
 30
0.0
 11
361.578623098
 21
-49.4027072972
 31
0.0
  0
LINE
  5
315
  8
0
  6
CONTINUOUS
 62
     7
 10
362.3786247192
 20
-56.3278342074
 30
0.0
 11
362.3786247192
 21
-49.4027072972
 31
0.0
  0
LINE
  5
316
  8
0
  6
CONTINUOUS
 62
     7
 10
450.1786148964
 20
-49.4027072972
 30
0.0
 11
450.1786148964
 21
-56.3278342074
 31
0.0
  0
LINE
  5
317
  8
0
  6
CONTINUOUS
 62
     7
 10
450.1786148964
 20
-56.786697585
 30
0.0
 11
450.1786148964
 21
-56.3278342074
 31
0.0
  0
LINE
  5
318
  8
0
  6
CONTINUOUS
 62
     7
 10
361.578623098
 20
-56.786697585
 30
0.0
 11
361.578623098
 21
-56.3278342074
 31
0.0
  0
LINE
  5
319
  8
0
  6
CONTINUOUS
 62
     7
 10
362.3786247192
 20
-56.3278342074
 30
0.0
 11
362.3786247192
 21
-56.786697585
 31
0.0
  0
LINE
  5
31A
  8
0
  6
CONTINUOUS
 62
     7
 10
450.9786284386
 20
-28.6261851376
 30
0.0
 11
451.3786232887
 21
-28.6261851376
 31
0.0
  0
LINE
  5
31B
  8
0
  6
CONTINUOUS
 62
     7
 10
352.2786176621
 20
-29.3869929331
 30
0.0
 11
352.2786176621
 21
-28.6261851376
 31
0.0
  0
LINE
  5
31C
  8
0
  6
CONTINUOUS
 62
     7
 10
352.2786176621
 20
-28.6261851376
 30
0.0
 11
354.2786157547
 21
-28.6261851376
 31
0.0
  0
LINE
  5
31D
  8
0
  6
CONTINUOUS
 62
     7
 10
354.2786157547
 20
-28.6261851376
 30
0.0
 11
361.578623098
 21
-28.6261851376
 31
0.0
  0
LINE
  5
31E
  8
0
  6
CONTINUOUS
 62
     7
 10
450.1786148964
 20
-56.786697585
 30
0.0
 11
450.1786148964
 21
-63.8694132155
 31
0.0
  0
LINE
  5
31F
  8
0
  6
CONTINUOUS
 62
     7
 10
361.578623098
 20
-63.8694132155
 30
0.0
 11
361.578623098
 21
-56.786697585
 31
0.0
  0
LINE
  5
320
  8
0
  6
CONTINUOUS
 62
     7
 10
362.3786247192
 20
-63.8694132155
 30
0.0
 11
362.3786247192
 21
-56.786697585
 31
0.0
  0
LINE
  5
321
  8
0
  6
CONTINUOUS
 62
     7
 10
350.2786195694
 20
-28.6261851376
 30
0.0
 11
352.2786176621
 21
-28.6261851376
 31
0.0
  0
LINE
  5
322
  8
0
  6
CONTINUOUS
 62
     7
 10
450.1786148964
 20
-63.8724590128
 30
0.0
 11
450.1786148964
 21
-63.8694132155
 31
0.0
  0
LINE
  5
323
  8
0
  6
CONTINUOUS
 62
     7
 10
361.578623098
 20
-63.8724590128
 30
0.0
 11
361.578623098
 21
-63.8694132155
 31
0.0
  0
LINE
  5
324
  8
0
  6
CONTINUOUS
 62
     7
 10
362.3786247192
 20
-63.8694132155
 30
0.0
 11
362.3786247192
 21
-63.8724590128
 31
0.0
  0
ARC
  5
325
  8
0
  6
CONTINUOUS
 62
     7
 10
223.8664508404
 20
-35.8050761307
 30
0.0
 40
2.212453854811297
 50
275.502952451
 51
359.0791464954
  0
LINE
  5
326
  8
0
  6
CONTINUOUS
 62
     7
 10
226.0786189555
 20
-35.8406329936
 30
0.0
 11
226.0786189555
 21
-35.8667875117
 31
0.0
  0
LINE
  5
327
  8
0
  6
CONTINUOUS
 62
     7
 10
226.0786189555
 20
-40.5878970808
 30
0.0
 11
226.0786189555
 21
-45.6892321294
 31
0.0
  0
ARC
  5
328
  8
0
  6
CONTINUOUS
 62
     7
 10
224.2770755203
 20
-45.7148186653
 30
0.0
 40
1.801725123188231
 50
300.0250199792
 51
0.8136922658
  0
ARC
  5
329
  8
0
  6
CONTINUOUS
 62
     7
 10
140.6914685615
 20
-35.8044444555
 30
0.0
 40
2.213147934081761
 50
180.9369201549
 51
264.4810872792
  0
LINE
  5
32A
  8
0
  6
CONTINUOUS
 62
     7
 10
138.4786165176
 20
-45.6892321294
 30
0.0
 11
138.4786165176
 21
-35.8406329936
 31
0.0
  0
ARC
  5
32B
  8
0
  6
CONTINUOUS
 62
     7
 10
140.280179068
 20
-45.7148073912
 30
0.0
 40
1.801744076433219
 50
179.1866748483
 51
239.9746536325
  0
LINE
  5
32C
  8
0
  6
CONTINUOUS
 62
     7
 10
226.0786189555
 20
-31.2581370061
 30
0.0
 11
138.4786165176
 21
-31.2581370061
 31
0.0
  0
LINE
  5
32D
  8
0
  6
CONTINUOUS
 62
     7
 10
226.0786189555
 20
-35.8406329936
 30
0.0
 11
226.0786189555
 21
-31.2581370061
 31
0.0
  0
LINE
  5
32E
  8
0
  6
CONTINUOUS
 62
     7
 10
138.4786165176
 20
-35.8406329936
 30
0.0
 11
138.4786165176
 21
-31.2581370061
 31
0.0
  0
LINE
  5
32F
  8
0
  6
CONTINUOUS
 62
     7
 10
226.1786191581
 20
-28.6261851376
 30
0.0
 11
138.3786178051
 21
-28.6261851376
 31
0.0
  0
LINE
  5
330
  8
0
  6
CONTINUOUS
 62
     7
 10
226.1786191581
 20
-31.2494215032
 30
0.0
 11
138.3786178051
 21
-31.2494215032
 31
0.0
  0
LINE
  5
331
  8
0
  6
CONTINUOUS
 62
     7
 10
138.3786178051
 20
-28.6261851376
 30
0.0
 11
138.3786178051
 21
-31.2494215032
 31
0.0
  0
LINE
  5
332
  8
0
  6
CONTINUOUS
 62
     7
 10
226.1786191581
 20
-28.6261851376
 30
0.0
 11
226.1786191581
 21
-31.2494215032
 31
0.0
  0
LINE
  5
333
  8
0
  6
CONTINUOUS
 62
     7
 10
138.4786165176
 20
-41.2461856788
 30
0.0
 11
138.3786178051
 21
-41.2461856788
 31
0.0
  0
LINE
  5
334
  8
0
  6
CONTINUOUS
 62
     7
 10
226.1786191581
 20
-41.2461856788
 30
0.0
 11
226.0786189555
 21
-41.2461856788
 31
0.0
  0
LINE
  5
335
  8
0
  6
CONTINUOUS
 62
     7
 10
138.3786178051
 20
-31.2494215032
 30
0.0
 11
138.3786178051
 21
-35.628310073
 31
0.0
  0
LINE
  5
336
  8
0
  6
CONTINUOUS
 62
     7
 10
226.1786191581
 20
-31.2494215032
 30
0.0
 11
226.1786191581
 21
-31.2612325361
 31
0.0
  0
LINE
  5
337
  8
0
  6
CONTINUOUS
 62
     7
 10
137.5786221443
 20
-49.4027072972
 30
0.0
 11
137.5786221443
 21
-48.9948893374
 31
0.0
  0
LINE
  5
338
  8
0
  6
CONTINUOUS
 62
     7
 10
138.3786178051
 20
-48.9948893374
 30
0.0
 11
138.3786178051
 21
-49.4027072972
 31
0.0
  0
LINE
  5
339
  8
0
  6
CONTINUOUS
 62
     7
 10
226.1786191581
 20
-49.4027072972
 30
0.0
 11
226.1786191581
 21
-48.9948893374
 31
0.0
  0
LINE
  5
33A
  8
0
  6
CONTINUOUS
 62
     7
 10
137.5786221443
 20
-48.9948893374
 30
0.0
 11
137.5786221443
 21
-40.9863749927
 31
0.0
  0
LINE
  5
33B
  8
0
  6
CONTINUOUS
 62
     7
 10
137.5786221443
 20
-29.3869929331
 30
0.0
 11
137.5786221443
 21
-28.6261851376
 31
0.0
  0
LINE
  5
33C
  8
0
  6
CONTINUOUS
 62
     7
 10
138.3786178051
 20
-48.9948893374
 30
0.0
 11
138.3786178051
 21
-35.628310073
 31
0.0
  0
LINE
  5
33D
  8
0
  6
CONTINUOUS
 62
     7
 10
137.5786221443
 20
-28.6261851376
 30
0.0
 11
138.3786178051
 21
-28.6261851376
 31
0.0
  0
LINE
  5
33E
  8
0
  6
CONTINUOUS
 62
     7
 10
226.1786191581
 20
-40.8514650947
 30
0.0
 11
226.1786191581
 21
-48.9948893374
 31
0.0
  0
LINE
  5
33F
  8
0
  6
CONTINUOUS
 62
     7
 10
226.9786192893
 20
-28.6261851376
 30
0.0
 11
226.9786192893
 21
-29.3869929331
 31
0.0
  0
LINE
  5
340
  8
0
  6
CONTINUOUS
 62
     7
 10
226.9786192893
 20
-28.6261851376
 30
0.0
 11
226.1786191581
 21
-28.6261851376
 31
0.0
  0
LINE
  5
341
  8
0
  6
CONTINUOUS
 62
     7
 10
226.1786191581
 20
-49.4027072972
 30
0.0
 11
226.1786191581
 21
-56.3278342074
 31
0.0
  0
LINE
  5
342
  8
0
  6
CONTINUOUS
 62
     7
 10
137.5786221443
 20
-56.3278342074
 30
0.0
 11
137.5786221443
 21
-49.4027072972
 31
0.0
  0
LINE
  5
343
  8
0
  6
CONTINUOUS
 62
     7
 10
138.3786178051
 20
-56.3278342074
 30
0.0
 11
138.3786178051
 21
-49.4027072972
 31
0.0
  0
LINE
  5
344
  8
0
  6
CONTINUOUS
 62
     7
 10
137.5786221443
 20
-56.786697585
 30
0.0
 11
137.5786221443
 21
-56.3278342074
 31
0.0
  0
LINE
  5
345
  8
0
  6
CONTINUOUS
 62
     7
 10
138.3786178051
 20
-56.3278342074
 30
0.0
 11
138.3786178051
 21
-56.786697585
 31
0.0
  0
LINE
  5
346
  8
0
  6
CONTINUOUS
 62
     7
 10
226.1786191581
 20
-56.786697585
 30
0.0
 11
226.1786191581
 21
-56.3278342074
 31
0.0
  0
LINE
  5
347
  8
0
  6
CONTINUOUS
 62
     7
 10
130.278614801
 20
-28.6261851376
 30
0.0
 11
137.5786221443
 21
-28.6261851376
 31
0.0
  0
LINE
  5
348
  8
0
  6
CONTINUOUS
 62
     7
 10
128.2786167084
 20
-29.3869929331
 30
0.0
 11
128.2786167084
 21
-28.6261851376
 31
0.0
  0
LINE
  5
349
  8
0
  6
CONTINUOUS
 62
     7
 10
128.2786167084
 20
-28.6261851376
 30
0.0
 11
130.278614801
 21
-28.6261851376
 31
0.0
  0
LINE
  5
34A
  8
0
  6
CONTINUOUS
 62
     7
 10
236.2786191373
 20
-28.6261851376
 30
0.0
 11
236.2786191373
 21
-29.3869929331
 31
0.0
  0
LINE
  5
34B
  8
0
  6
CONTINUOUS
 62
     7
 10
234.278619182
 20
-28.6261851376
 30
0.0
 11
236.2786191373
 21
-28.6261851376
 31
0.0
  0
LINE
  5
34C
  8
0
  6
CONTINUOUS
 62
     7
 10
226.9786192893
 20
-28.6261851376
 30
0.0
 11
234.278619182
 21
-28.6261851376
 31
0.0
  0
LINE
  5
34D
  8
0
  6
CONTINUOUS
 62
     7
 10
226.1786191581
 20
-56.786697585
 30
0.0
 11
226.1786191581
 21
-63.8694132155
 31
0.0
  0
LINE
  5
34E
  8
0
  6
CONTINUOUS
 62
     7
 10
137.5786221443
 20
-63.8694132155
 30
0.0
 11
137.5786221443
 21
-56.786697585
 31
0.0
  0
LINE
  5
34F
  8
0
  6
CONTINUOUS
 62
     7
 10
138.3786178051
 20
-63.8694132155
 30
0.0
 11
138.3786178051
 21
-56.786697585
 31
0.0
  0
LINE
  5
350
  8
0
  6
CONTINUOUS
 62
     7
 10
126.2786186157
 20
-28.6261851376
 30
0.0
 11
128.2786167084
 21
-28.6261851376
 31
0.0
  0
LINE
  5
351
  8
0
  6
CONTINUOUS
 62
     7
 10
236.2786191373
 20
-28.6261851376
 30
0.0
 11
238.2786190926
 21
-28.6261851376
 31
0.0
  0
LINE
  5
352
  8
0
  6
CONTINUOUS
 62
     7
 10
226.1786191581
 20
-63.8724590128
 30
0.0
 11
226.1786191581
 21
-63.8694132155
 31
0.0
  0
LINE
  5
353
  8
0
  6
CONTINUOUS
 62
     7
 10
137.5786221443
 20
-63.8724590128
 30
0.0
 11
137.5786221443
 21
-63.8694132155
 31
0.0
  0
LINE
  5
354
  8
0
  6
CONTINUOUS
 62
     7
 10
138.3786178051
 20
-63.8694132155
 30
0.0
 11
138.3786178051
 21
-63.8724590128
 31
0.0
  0
LINE
  5
355
  8
0
  6
CONTINUOUS
 62
     7
 10
513.6896799187
 20
243.0745443372
 30
0.0
 11
518.7209109644
 21
243.5147127179
 31
0.0
  0
ARC
  5
356
  8
0
  6
CONTINUOUS
 62
     7
 10
518.7557729471
 20
243.1162381841
 30
0.0
 40
0.3999999999999794
 50
22.2493115503
 51
95.0
  0
LINE
  5
357
  8
0
  6
CONTINUOUS
 62
     7
 10
511.0664355437
 20
192.8347310094
 30
0.0
 11
511.0664355437
 21
108.2111021546
 31
0.0
  0
LINE
  5
358
  8
0
  6
CONTINUOUS
 62
     7
 10
546.6219114939
 20
107.811101344
 30
0.0
 11
511.0664355437
 21
107.811101344
 31
0.0
  0
LINE
  5
359
  8
0
  6
CONTINUOUS
 62
     7
 10
511.0664355437
 20
107.811101344
 30
0.0
 11
511.0664355437
 21
108.2111021546
 31
0.0
  0
LINE
  5
35A
  8
0
  6
CONTINUOUS
 62
     7
 10
511.0664355437
 20
193.182464507
 30
0.0
 11
511.0711062057
 21
193.1828698186
 31
0.0
  0
POLYLINE
  5
35B
  8
0
  6
CONTINUOUS
 62
     7
 66
     1
 10
0.0
 20
0.0
 30
0.0
  0
VERTEX
  5
5CA
  8
0
  6
CONTINUOUS
 62
     7
 10
511.0711062057
 20
193.1828698186
 30
0.0
  0
VERTEX
  5
5CB
  8
0
  6
CONTINUOUS
 62
     7
 10
511.070030797
 20
193.1951602963
 30
0.0
  0
VERTEX
  5
5CC
  8
0
  6
CONTINUOUS
 62
     7
 10
511.0690892781
 20
193.2059248952
 30
0.0
  0
VERTEX
  5
5CD
  8
0
  6
CONTINUOUS
 62
     7
 10
511.0682856813
 20
193.2151159314
 30
0.0
  0
VERTEX
  5
5CE
  8
0
  6
CONTINUOUS
 62
     7
 10
511.0676234476
 20
193.2226857213
 30
0.0
  0
VERTEX
  5
5CF
  8
0
  6
CONTINUOUS
 62
     7
 10
511.067105413
 20
193.2285985021
 30
0.0
  0
VERTEX
  5
5D0
  8
0
  6
CONTINUOUS
 62
     7
 10
511.0667337955
 20
193.2328542737
 30
0.0
  0
VERTEX
  5
5D1
  8
0
  6
CONTINUOUS
 62
     7
 10
511.0665101866
 20
193.2354053525
 30
0.0
  0
VERTEX
  5
5D2
  8
0
  6
CONTINUOUS
 62
     7
 10
511.0664355437
 20
193.2362636594
 30
0.0
  0
SEQEND
  5
61B
  8
0
  6
CONTINUOUS
 62
     7
  0
LINE
  5
35C
  8
0
  6
CONTINUOUS
 62
     7
 10
511.0664355437
 20
193.2362636594
 30
0.0
 11
531.2914031426
 21
195.005710986
 31
0.0
  0
LINE
  5
35D
  8
0
  6
CONTINUOUS
 62
     7
 10
511.0664355437
 20
192.8347310094
 30
0.0
 11
511.0664355437
 21
193.182464507
 31
0.0
  0
ARC
  5
35E
  8
0
  6
CONTINUOUS
 62
     7
 10
531.3262657811
 20
194.6072374306
 30
0.0
 40
0.4000000000000077
 50
65.0
 51
95.0
  0
ARC
  5
35F
  8
0
  6
CONTINUOUS
 62
     7
 10
539.392296524
 20
190.8459855243
 30
0.0
 40
0.3999999999999794
 50
5.0
 51
65.0
  0
LINE
  5
360
  8
0
  6
CONTINUOUS
 62
     7
 10
539.7907751481
 20
190.8808430699
 30
0.0
 11
547.0203894059
 21
108.2459649114
 31
0.0
  0
LINE
  5
361
  8
0
  6
CONTINUOUS
 62
     7
 10
531.4953136126
 20
194.9697574643
 30
0.0
 11
539.5613449494
 21
191.2085136441
 31
0.0
  0
ARC
  5
362
  8
0
  6
CONTINUOUS
 62
     7
 10
546.6219121433
 20
108.2111008672
 30
0.0
 40
0.3999999999999915
 50
270.0
 51
5.0
  0
LINE
  5
363
  8
0
  6
CONTINUOUS
 62
     7
 10
544.6087526957
 20
135.811098483
 30
0.0
 11
608.2664358298
 21
135.811098483
 31
0.0
  0
ARC
  5
364
  8
0
  6
CONTINUOUS
 62
     7
 10
608.2664433805
 20
133.4111071305
 30
0.0
 40
2.399991352544871
 50
359.9998197387
 51
90.0001802613
  0
LINE
  5
365
  8
0
  6
CONTINUOUS
 62
     7
 10
610.6664347331
 20
129.2111000089
 30
0.0
 11
545.1861786524
 21
129.2111000089
 31
0.0
  0
LINE
  5
366
  8
0
  6
CONTINUOUS
 62
     7
 10
610.6664347331
 20
133.4110995797
 30
0.0
 11
610.6664347331
 21
129.2111000089
 31
0.0
  0
LINE
  5
367
  8
0
  6
CONTINUOUS
 62
     7
 10
605.9095132033
 20
121.2111016778
 30
0.0
 11
545.8860861937
 21
121.2111016778
 31
0.0
  0
ARC
  5
368
  8
0
  6
CONTINUOUS
 62
     7
 10
605.9095136055
 20
121.6111008672
 30
0.0
 40
0.4000000000000736
 50
270.0
 51
330.0
  0
LINE
  5
369
  8
0
  6
CONTINUOUS
 62
     7
 10
610.5860519091
 20
128.9110979108
 30
0.0
 11
606.2559234778
 21
121.4110991029
 31
0.0
  0
ARC
  5
36A
  8
0
  6
CONTINUOUS
 62
     7
 10
610.0664355437
 20
129.2111008672
 30
0.0
 40
0.6000000000000998
 50
330.0
 51
0.0
  0
LINE
  5
36B
  8
0
  6
CONTINUOUS
 62
     7
 10
541.8436008374
 20
107.811101344
 30
0.0
 11
539.429985253
 21
107.5999340085
 31
0.0
  0
ARC
  5
36C
  8
0
  6
CONTINUOUS
 62
     7
 10
539.3951224336
 20
107.9984147436
 30
0.0
 40
0.4000000000000077
 50
207.9230096112
 51
275.0
  0
LINE
  5
36D
  8
0
  6
CONTINUOUS
 62
     7
 10
511.0664355437
 20
242.8451260594
 30
0.0
 11
513.6896719093
 21
243.0746277837
 31
0.0
  0
LINE
  5
36E
  8
0
  6
CONTINUOUS
 62
     7
 10
513.6896719093
 20
243.0746277837
 30
0.0
 11
517.9969164411
 21
193.8425978688
 31
0.0
  0
LINE
  5
36F
  8
0
  6
CONTINUOUS
 62
     7
 10
511.0664355437
 20
193.182464507
 30
0.0
 11
511.0664355437
 21
242.8451260594
 31
0.0
  0
LINE
  5
370
  8
0
  6
CONTINUOUS
 62
     7
 10
518.2808833996
 20
243.375929263
 30
0.0
 11
513.6983874122
 21
242.9750165013
 31
0.0
  0
ARC
  5
371
  8
0
  6
CONTINUOUS
 62
     7
 10
518.4551982543
 20
241.3835439599
 30
0.0
 40
1.999996216116004
 50
5.0000388656
 51
95.0001063734
  0
LINE
  5
372
  8
0
  6
CONTINUOUS
 62
     7
 10
520.4475837628
 20
241.5578564672
 30
0.0
 11
524.5718019883
 21
194.4178303746
 31
0.0
  0
ARC
  5
373
  8
0
  6
CONTINUOUS
 62
     7
 10
761.3408266831
 20
243.1162381841
 30
0.0
 40
0.4000000000000057
 50
90.0
 51
180.0
  0
LINE
  5
374
  8
0
  6
CONTINUOUS
 62
     7
 10
784.540829258
 20
243.5162385968
 30
0.0
 11
761.3408299256
 21
243.5162385968
 31
0.0
  0
ARC
  5
375
  8
0
  6
CONTINUOUS
 62
     7
 10
784.5408266831
 20
243.1162381841
 30
0.0
 40
0.4000000000000057
 50
0.0
 51
90.0
  0
ARC
  5
376
  8
0
  6
CONTINUOUS
 62
     7
 10
873.3408266831
 20
243.1162381841
 30
0.0
 40
0.4000000000000057
 50
90.0
 51
180.0
  0
LINE
  5
377
  8
0
  6
CONTINUOUS
 62
     7
 10
896.5408267546
 20
243.5162385968
 30
0.0
 11
873.3408266772
 21
243.5162385968
 31
0.0
  0
ARC
  5
378
  8
0
  6
CONTINUOUS
 62
     7
 10
896.5408266831
 20
243.1162381841
 30
0.0
 40
0.4000000000000057
 50
0.0
 51
90.0
  0
ARC
  5
379
  8
0
  6
CONTINUOUS
 62
     7
 10
985.3408266831
 20
243.1162381841
 30
0.0
 40
0.4000000000000057
 50
90.0
 51
180.0
  0
LINE
  5
37A
  8
0
  6
CONTINUOUS
 62
     7
 10
1008.5408302117
 20
243.5162385968
 30
0.0
 11
985.3408308793
 21
243.5162385968
 31
0.0
  0
ARC
  5
37B
  8
0
  6
CONTINUOUS
 62
     7
 10
1008.5408266831
 20
243.1162381841
 30
0.0
 40
0.4000000000000057
 50
0.0
 51
90.0
  0
ARC
  5
37C
  8
0
  6
CONTINUOUS
 62
     7
 10
660.7408266831
 20
194.6072374306
 30
0.0
 40
0.4000000000000909
 50
90.0
 51
180.0
  0
LINE
  5
37D
  8
0
  6
CONTINUOUS
 62
     7
 10
671.6408224869
 20
195.0072368649
 30
0.0
 11
660.7408257294
 21
195.0072368649
 31
0.0
  0
ARC
  5
37E
  8
0
  6
CONTINUOUS
 62
     7
 10
671.6408266831
 20
194.6072374306
 30
0.0
 40
0.4000000000000909
 50
0.0
 51
90.0
  0
ARC
  5
37F
  8
0
  6
CONTINUOUS
 62
     7
 10
1097.8408266831
 20
194.6072374306
 30
0.0
 40
0.4000000000000057
 50
90.0
 51
180.0
  0
LINE
  5
380
  8
0
  6
CONTINUOUS
 62
     7
 10
1108.7408276368
 20
195.0072368649
 30
0.0
 11
1097.8408308793
 21
195.0072368649
 31
0.0
  0
ARC
  5
381
  8
0
  6
CONTINUOUS
 62
     7
 10
1108.7408266831
 20
194.6072374306
 30
0.0
 40
0.4000000000000909
 50
0.0
 51
90.0
  0
LINE
  5
382
  8
0
  6
CONTINUOUS
 62
     7
 10
673.9408226777
 20
128.0111035375
 30
0.0
 11
672.9408236314
 21
128.0111035375
 31
0.0
  0
LINE
  5
383
  8
0
  6
CONTINUOUS
 62
     7
 10
672.9408236314
 20
123.2110997705
 30
0.0
 11
673.9408226777
 21
123.2110997705
 31
0.0
  0
LINE
  5
384
  8
0
  6
CONTINUOUS
 62
     7
 10
760.5408283044
 20
128.0111035375
 30
0.0
 11
759.540829258
 21
128.0111035375
 31
0.0
  0
LINE
  5
385
  8
0
  6
CONTINUOUS
 62
     7
 10
759.540829258
 20
123.2110997705
 30
0.0
 11
760.5408283044
 21
123.2110997705
 31
0.0
  0
LINE
  5
386
  8
0
  6
CONTINUOUS
 62
     7
 10
1009.8499627877
 20
121.1366137532
 30
0.0
 11
1095.631692009
 21
121.1366137532
 31
0.0
  0
LINE
  5
387
  8
0
  6
CONTINUOUS
 62
     7
 10
1009.8408313561
 20
128.0111035375
 30
0.0
 11
1008.9408250619
 21
128.0111035375
 31
0.0
  0
LINE
  5
388
  8
0
  6
CONTINUOUS
 62
     7
 10
1008.9408250619
 20
123.2110997705
 30
0.0
 11
1009.8408313561
 21
123.2110997705
 31
0.0
  0
LINE
  5
389
  8
0
  6
CONTINUOUS
 62
     7
 10
1096.5408297349
 20
128.0111035375
 30
0.0
 11
1095.6408234406
 21
128.0111035375
 31
0.0
  0
LINE
  5
38A
  8
0
  6
CONTINUOUS
 62
     7
 10
1095.6408234406
 20
123.2110997705
 30
0.0
 11
1096.5408297349
 21
123.2110997705
 31
0.0
  0
ARC
  5
38B
  8
0
  6
CONTINUOUS
 62
     7
 10
1010.3408266831
 20
107.9984147436
 30
0.0
 40
0.4000000000000057
 50
180.0
 51
270.0
  0
LINE
  5
38C
  8
0
  6
CONTINUOUS
 62
     7
 10
1010.3408308793
 20
107.5984140901
 30
0.0
 11
1095.1408358384
 21
107.5984140901
 31
0.0
  0
ARC
  5
38D
  8
0
  6
CONTINUOUS
 62
     7
 10
1095.1408266831
 20
107.9984147436
 30
0.0
 40
0.4000000000000909
 50
270.0
 51
0.0
  0
LINE
  5
38E
  8
0
  6
CONTINUOUS
 62
     7
 10
897.8499593306
 20
121.1366137532
 30
0.0
 11
983.6316915322
 21
121.1366137532
 31
0.0
  0
LINE
  5
38F
  8
0
  6
CONTINUOUS
 62
     7
 10
897.8408264089
 20
128.0111035375
 30
0.0
 11
896.9408268202
 21
128.0111035375
 31
0.0
  0
LINE
  5
390
  8
0
  6
CONTINUOUS
 62
     7
 10
896.9408268202
 20
123.2110997705
 30
0.0
 11
897.8408264089
 21
123.2110997705
 31
0.0
  0
LINE
  5
391
  8
0
  6
CONTINUOUS
 62
     7
 10
984.540829258
 20
128.0111035375
 30
0.0
 11
983.6408289242
 21
128.0111035375
 31
0.0
  0
LINE
  5
392
  8
0
  6
CONTINUOUS
 62
     7
 10
983.6408289242
 20
123.2110997705
 30
0.0
 11
984.540829258
 21
123.2110997705
 31
0.0
  0
LINE
  5
393
  8
0
  6
CONTINUOUS
 62
     7
 10
898.3408274222
 20
107.5984140901
 30
0.0
 11
983.1408294011
 21
107.5984140901
 31
0.0
  0
ARC
  5
394
  8
0
  6
CONTINUOUS
 62
     7
 10
898.3408266831
 20
107.9984147436
 30
0.0
 40
0.4000000000000057
 50
180.0
 51
270.0
  0
ARC
  5
395
  8
0
  6
CONTINUOUS
 62
     7
 10
983.1408266831
 20
107.9984147436
 30
0.0
 40
0.4000000000000057
 50
270.0
 51
0.0
  0
LINE
  5
396
  8
0
  6
CONTINUOUS
 62
     7
 10
785.849961834
 20
121.1366137532
 30
0.0
 11
871.6316940356
 21
121.1366137532
 31
0.0
  0
LINE
  5
397
  8
0
  6
CONTINUOUS
 62
     7
 10
785.840824442
 20
128.0111035375
 30
0.0
 11
784.9408241082
 21
128.0111035375
 31
0.0
  0
LINE
  5
398
  8
0
  6
CONTINUOUS
 62
     7
 10
784.9408241082
 20
123.2110997705
 30
0.0
 11
785.840824442
 21
123.2110997705
 31
0.0
  0
LINE
  5
399
  8
0
  6
CONTINUOUS
 62
     7
 10
872.540826546
 20
128.0111035375
 30
0.0
 11
871.6408269573
 21
128.0111035375
 31
0.0
  0
LINE
  5
39A
  8
0
  6
CONTINUOUS
 62
     7
 10
871.6408269573
 20
123.2110997705
 30
0.0
 11
872.540826546
 21
123.2110997705
 31
0.0
  0
ARC
  5
39B
  8
0
  6
CONTINUOUS
 62
     7
 10
786.3408266831
 20
107.9984147436
 30
0.0
 40
0.4000000000000057
 50
180.0
 51
270.0
  0
LINE
  5
39C
  8
0
  6
CONTINUOUS
 62
     7
 10
786.3408239651
 20
107.5984140901
 30
0.0
 11
871.140825944
 21
107.5984140901
 31
0.0
  0
ARC
  5
39D
  8
0
  6
CONTINUOUS
 62
     7
 10
871.1408266831
 20
107.9984147436
 30
0.0
 40
0.4000000000000057
 50
270.0
 51
0.0
  0
LINE
  5
39E
  8
0
  6
CONTINUOUS
 62
     7
 10
872.5332157779
 20
243.3835348157
 30
0.0
 11
784.9484356213
 21
243.3835348157
 31
0.0
  0
LINE
  5
39F
  8
0
  6
CONTINUOUS
 62
     7
 10
784.7408266831
 20
194.1961726216
 30
0.0
 11
784.0408297349
 21
194.1961726216
 31
0.0
  0
LINE
  5
3A0
  8
0
  6
CONTINUOUS
 62
     7
 10
873.4408268798
 20
194.1961726216
 30
0.0
 11
873.1408270169
 21
194.1961726216
 31
0.0
  0
LINE
  5
3A1
  8
0
  6
CONTINUOUS
 62
     7
 10
872.9408266116
 20
194.1961726216
 30
0.0
 11
872.6408267487
 21
194.1961726216
 31
0.0
  0
LINE
  5
3A2
  8
0
  6
CONTINUOUS
 62
     7
 10
784.8408253957
 20
124.4111022023
 30
0.0
 11
784.9408241082
 21
124.4111022023
 31
0.0
  0
LINE
  5
3A3
  8
0
  6
CONTINUOUS
 62
     7
 10
872.540826546
 20
124.4111022023
 30
0.0
 11
872.6408267487
 21
124.4111022023
 31
0.0
  0
LINE
  5
3A4
  8
0
  6
CONTINUOUS
 62
     7
 10
872.6408267487
 20
126.8111011056
 30
0.0
 11
872.540826546
 21
126.8111011056
 31
0.0
  0
LINE
  5
3A5
  8
0
  6
CONTINUOUS
 62
     7
 10
784.9408241082
 20
126.8111011056
 30
0.0
 11
784.8408253957
 21
126.8111011056
 31
0.0
  0
LINE
  5
3A6
  8
0
  6
CONTINUOUS
 62
     7
 10
1096.5332241822
 20
243.3835348157
 30
0.0
 11
1008.9484425355
 21
243.3835348157
 31
0.0
  0
LINE
  5
3A7
  8
0
  6
CONTINUOUS
 62
     7
 10
1008.7408276368
 20
194.1961726216
 30
0.0
 11
1008.0408306885
 21
194.1961726216
 31
0.0
  0
LINE
  5
3A8
  8
0
  6
CONTINUOUS
 62
     7
 10
1097.4408360291
 20
194.1961726216
 30
0.0
 11
1096.6408224869
 21
194.1961726216
 31
0.0
  0
LINE
  5
3A9
  8
0
  6
CONTINUOUS
 62
     7
 10
1008.8408323098
 20
124.4111022023
 30
0.0
 11
1008.9408250619
 21
124.4111022023
 31
0.0
  0
LINE
  5
3AA
  8
0
  6
CONTINUOUS
 62
     7
 10
1096.5408297349
 20
124.4111022023
 30
0.0
 11
1096.6408224869
 21
124.4111022023
 31
0.0
  0
LINE
  5
3AB
  8
0
  6
CONTINUOUS
 62
     7
 10
1096.6408224869
 20
126.8111011056
 30
0.0
 11
1096.5408297349
 21
126.8111011056
 31
0.0
  0
LINE
  5
3AC
  8
0
  6
CONTINUOUS
 62
     7
 10
1008.9408250619
 20
126.8111011056
 30
0.0
 11
1008.8408323098
 21
126.8111011056
 31
0.0
  0
LINE
  5
3AD
  8
0
  6
CONTINUOUS
 62
     7
 10
760.5332108308
 20
243.3835348157
 30
0.0
 11
672.948429184
 21
243.3835348157
 31
0.0
  0
LINE
  5
3AE
  8
0
  6
CONTINUOUS
 62
     7
 10
672.8408308793
 20
194.1961726216
 30
0.0
 11
672.0408173371
 21
194.1961726216
 31
0.0
  0
LINE
  5
3AF
  8
0
  6
CONTINUOUS
 62
     7
 10
761.4408226777
 20
194.1961726216
 30
0.0
 11
761.1408325005
 21
194.1961726216
 31
0.0
  0
LINE
  5
3B0
  8
0
  6
CONTINUOUS
 62
     7
 10
760.9408231545
 20
194.1961726216
 30
0.0
 11
760.6408210564
 21
194.1961726216
 31
0.0
  0
LINE
  5
3B1
  8
0
  6
CONTINUOUS
 62
     7
 10
672.8408308793
 20
124.4111022023
 30
0.0
 11
672.9408236314
 21
124.4111022023
 31
0.0
  0
LINE
  5
3B2
  8
0
  6
CONTINUOUS
 62
     7
 10
760.5408283044
 20
124.4111022023
 30
0.0
 11
760.6408210564
 21
124.4111022023
 31
0.0
  0
LINE
  5
3B3
  8
0
  6
CONTINUOUS
 62
     7
 10
760.6408210564
 20
126.8111011056
 30
0.0
 11
760.5408283044
 21
126.8111011056
 31
0.0
  0
LINE
  5
3B4
  8
0
  6
CONTINUOUS
 62
     7
 10
672.9408236314
 20
126.8111011056
 30
0.0
 11
672.8408308793
 21
126.8111011056
 31
0.0
  0
LINE
  5
3B5
  8
0
  6
CONTINUOUS
 62
     7
 10
984.5332177449
 20
243.3835348157
 30
0.0
 11
896.9484375883
 21
243.3835348157
 31
0.0
  0
LINE
  5
3B6
  8
0
  6
CONTINUOUS
 62
     7
 10
896.7408264149
 20
194.1961726216
 30
0.0
 11
896.0408264864
 21
194.1961726216
 31
0.0
  0
LINE
  5
3B7
  8
0
  6
CONTINUOUS
 62
     7
 10
985.4408236314
 20
194.1961726216
 30
0.0
 11
985.1408215333
 21
194.1961726216
 31
0.0
  0
LINE
  5
3B8
  8
0
  6
CONTINUOUS
 62
     7
 10
984.9408241082
 20
194.1961726216
 30
0.0
 11
984.6408279706
 21
194.1961726216
 31
0.0
  0
LINE
  5
3B9
  8
0
  6
CONTINUOUS
 62
     7
 10
896.8408266175
 20
124.4111022023
 30
0.0
 11
896.9408268202
 21
124.4111022023
 31
0.0
  0
LINE
  5
3BA
  8
0
  6
CONTINUOUS
 62
     7
 10
984.540829258
 20
124.4111022023
 30
0.0
 11
984.6408279706
 21
124.4111022023
 31
0.0
  0
LINE
  5
3BB
  8
0
  6
CONTINUOUS
 62
     7
 10
984.6408279706
 20
126.8111011056
 30
0.0
 11
984.540829258
 21
126.8111011056
 31
0.0
  0
LINE
  5
3BC
  8
0
  6
CONTINUOUS
 62
     7
 10
896.9408268202
 20
126.8111011056
 30
0.0
 11
896.8408266175
 21
126.8111011056
 31
0.0
  0
LINE
  5
3BD
  8
0
  6
CONTINUOUS
 62
     7
 10
783.8408323098
 20
108.0110987691
 30
0.0
 11
762.0408268738
 21
108.0110987691
 31
0.0
  0
ARC
  5
3BE
  8
0
  6
CONTINUOUS
 62
     7
 10
783.6408266831
 20
108.2111008672
 30
0.0
 40
0.4000000000000909
 50
270.0
 51
0.0
  0
LINE
  5
3BF
  8
0
  6
CONTINUOUS
 62
     7
 10
762.2408242989
 20
107.811101344
 30
0.0
 11
783.6408229638
 21
107.811101344
 31
0.0
  0
ARC
  5
3C0
  8
0
  6
CONTINUOUS
 62
     7
 10
762.2408266831
 20
108.2111008672
 30
0.0
 40
0.4000000000000199
 50
180.0
 51
270.0
  0
LINE
  5
3C1
  8
0
  6
CONTINUOUS
 62
     7
 10
784.0408297349
 20
108.4110995797
 30
0.0
 11
784.0408297349
 21
108.2111021546
 31
0.0
  0
LINE
  5
3C2
  8
0
  6
CONTINUOUS
 62
     7
 10
761.8408294488
 20
110.4111036328
 30
0.0
 11
761.8408294488
 21
108.2111021546
 31
0.0
  0
LINE
  5
3C3
  8
0
  6
CONTINUOUS
 62
     7
 10
783.8408323098
 20
110.4111036328
 30
0.0
 11
783.8408323098
 21
108.0110987691
 31
0.0
  0
LINE
  5
3C4
  8
0
  6
CONTINUOUS
 62
     7
 10
762.0408268738
 20
108.0110987691
 30
0.0
 11
762.0408268738
 21
110.4111036328
 31
0.0
  0
LINE
  5
3C5
  8
0
  6
CONTINUOUS
 62
     7
 10
784.7408266831
 20
238.9268240003
 30
0.0
 11
784.8408253957
 21
238.9268240003
 31
0.0
  0
LINE
  5
3C6
  8
0
  6
CONTINUOUS
 62
     7
 10
784.7408266831
 20
238.9268240003
 30
0.0
 11
784.7408266831
 21
242.7123626737
 31
0.0
  0
LINE
  5
3C7
  8
0
  6
CONTINUOUS
 62
     7
 10
761.1408325005
 20
242.7123626737
 30
0.0
 11
784.7408266831
 21
242.7123626737
 31
0.0
  0
LINE
  5
3C8
  8
0
  6
CONTINUOUS
 62
     7
 10
761.1408325005
 20
242.7123626737
 30
0.0
 11
761.1408325005
 21
238.9268240003
 31
0.0
  0
LINE
  5
3C9
  8
0
  6
CONTINUOUS
 62
     7
 10
761.1408325005
 20
238.9268240003
 30
0.0
 11
760.9408231545
 21
238.9268240003
 31
0.0
  0
LINE
  5
3CA
  8
0
  6
CONTINUOUS
 62
     7
 10
760.9408231545
 20
242.5131162671
 30
0.0
 11
760.9408231545
 21
238.9268240003
 31
0.0
  0
ARC
  5
3CB
  8
0
  6
CONTINUOUS
 62
     7
 10
761.3400556843
 20
242.5123646727
 30
0.0
 40
0.3992332372971472
 50
89.8888850414
 51
179.8921352072
  0
LINE
  5
3CC
  8
0
  6
CONTINUOUS
 62
     7
 10
761.3408299256
 20
242.9115971593
 30
0.0
 11
784.540829258
 21
242.9115971593
 31
0.0
  0
ARC
  5
3CD
  8
0
  6
CONTINUOUS
 62
     7
 10
784.5410632494
 20
242.5111136978
 30
0.0
 40
0.4004835298280274
 50
41.5393418362
 51
90.0334763269
  0
LINE
  5
3CE
  8
0
  6
CONTINUOUS
 62
     7
 10
760.9408231545
 20
242.5131162671
 30
0.0
 11
760.9408231545
 21
243.1162437467
 31
0.0
  0
LINE
  5
3CF
  8
0
  6
CONTINUOUS
 62
     7
 10
761.1408325005
 20
193.9690193204
 30
0.0
 11
760.9408231545
 21
193.9690193204
 31
0.0
  0
LINE
  5
3D0
  8
0
  6
CONTINUOUS
 62
     7
 10
760.9408231545
 20
193.9690193204
 30
0.0
 11
760.9408231545
 21
238.9268240003
 31
0.0
  0
LINE
  5
3D1
  8
0
  6
CONTINUOUS
 62
     7
 10
761.1408325005
 20
193.9690193204
 30
0.0
 11
761.1408325005
 21
238.9268240003
 31
0.0
  0
LINE
  5
3D2
  8
0
  6
CONTINUOUS
 62
     7
 10
784.7408266831
 20
193.9690193204
 30
0.0
 11
784.8408253957
 21
193.9690193204
 31
0.0
  0
LINE
  5
3D3
  8
0
  6
CONTINUOUS
 62
     7
 10
784.7408266831
 20
193.9690193204
 30
0.0
 11
784.7408266831
 21
238.9268240003
 31
0.0
  0
LINE
  5
3D4
  8
0
  6
CONTINUOUS
 62
     7
 10
762.2408242989
 20
194.3002065686
 30
0.0
 11
783.6408229638
 21
194.3002065686
 31
0.0
  0
LINE
  5
3D5
  8
0
  6
CONTINUOUS
 62
     7
 10
761.1408325005
 20
194.3002065686
 30
0.0
 11
762.2408242989
 21
194.3002065686
 31
0.0
  0
LINE
  5
3D6
  8
0
  6
CONTINUOUS
 62
     7
 10
783.6408229638
 20
194.3002065686
 30
0.0
 11
784.7408266831
 21
194.3002065686
 31
0.0
  0
ARC
  5
3D7
  8
0
  6
CONTINUOUS
 62
     7
 10
783.6415784615
 20
193.5697680186
 30
0.0
 40
0.3992520166442913
 50
0.1105598651
 51
90.1084198862
  0
LINE
  5
3D8
  8
0
  6
CONTINUOUS
 62
     7
 10
762.0408268738
 20
193.7697729138
 30
0.0
 11
783.8408323098
 21
193.7697729138
 31
0.0
  0
ARC
  5
3D9
  8
0
  6
CONTINUOUS
 62
     7
 10
762.2400757351
 20
193.5697730021
 30
0.0
 40
0.3992470200992304
 50
89.8925738485
 51
179.8901539317
  0
LINE
  5
3DA
  8
0
  6
CONTINUOUS
 62
     7
 10
762.2408242989
 20
193.9690193204
 30
0.0
 11
783.6408229638
 21
193.9690193204
 31
0.0
  0
LINE
  5
3DB
  8
0
  6
CONTINUOUS
 62
     7
 10
784.0408297349
 20
193.5705384282
 30
0.0
 11
784.0408297349
 21
193.1501230268
 31
0.0
  0
LINE
  5
3DC
  8
0
  6
CONTINUOUS
 62
     7
 10
761.8408294488
 20
193.5705384282
 30
0.0
 11
761.8408294488
 21
190.4110988645
 31
0.0
  0
LINE
  5
3DD
  8
0
  6
CONTINUOUS
 62
     7
 10
783.8408323098
 20
193.7697729138
 30
0.0
 11
783.8408323098
 21
190.4110988645
 31
0.0
  0
LINE
  5
3DE
  8
0
  6
CONTINUOUS
 62
     7
 10
762.0408268738
 20
193.7697729138
 30
0.0
 11
762.0408268738
 21
190.4110988645
 31
0.0
  0
LINE
  5
3DF
  8
0
  6
CONTINUOUS
 62
     7
 10
761.8408294488
 20
193.5705384282
 30
0.0
 11
761.8408294488
 21
194.3002065686
 31
0.0
  0
LINE
  5
3E0
  8
0
  6
CONTINUOUS
 62
     7
 10
784.0408297349
 20
194.3002065686
 30
0.0
 11
784.0408297349
 21
193.5705384282
 31
0.0
  0
LINE
  5
3E1
  8
0
  6
CONTINUOUS
 62
     7
 10
762.0408268738
 20
190.9784516362
 30
0.0
 11
783.8408323098
 21
190.9784516362
 31
0.0
  0
LINE
  5
3E2
  8
0
  6
CONTINUOUS
 62
     7
 10
895.8408268262
 20
108.0110987691
 30
0.0
 11
874.0408266056
 21
108.0110987691
 31
0.0
  0
ARC
  5
3E3
  8
0
  6
CONTINUOUS
 62
     7
 10
895.6408266831
 20
108.2111008672
 30
0.0
 40
0.3999999999999915
 50
270.0
 51
0.0
  0
LINE
  5
3E4
  8
0
  6
CONTINUOUS
 62
     7
 10
874.2408270109
 20
107.811101344
 30
0.0
 11
895.6408264209
 21
107.811101344
 31
0.0
  0
ARC
  5
3E5
  8
0
  6
CONTINUOUS
 62
     7
 10
874.2408266831
 20
108.2111008672
 30
0.0
 40
0.4000000000000199
 50
180.0
 51
270.0
  0
LINE
  5
3E6
  8
0
  6
CONTINUOUS
 62
     7
 10
896.0408264864
 20
108.4110995797
 30
0.0
 11
896.0408264864
 21
108.2111021546
 31
0.0
  0
LINE
  5
3E7
  8
0
  6
CONTINUOUS
 62
     7
 10
873.8408269454
 20
110.4111036328
 30
0.0
 11
873.8408269454
 21
108.2111021546
 31
0.0
  0
LINE
  5
3E8
  8
0
  6
CONTINUOUS
 62
     7
 10
895.8408268262
 20
110.4111036328
 30
0.0
 11
895.8408268262
 21
108.0110987691
 31
0.0
  0
LINE
  5
3E9
  8
0
  6
CONTINUOUS
 62
     7
 10
874.0408266056
 20
108.0110987691
 30
0.0
 11
874.0408266056
 21
110.4111036328
 31
0.0
  0
LINE
  5
3EA
  8
0
  6
CONTINUOUS
 62
     7
 10
896.7408264149
 20
238.9268240003
 30
0.0
 11
896.8408266175
 21
238.9268240003
 31
0.0
  0
LINE
  5
3EB
  8
0
  6
CONTINUOUS
 62
     7
 10
896.7408264149
 20
238.9268240003
 30
0.0
 11
896.7408264149
 21
242.7123626737
 31
0.0
  0
LINE
  5
3EC
  8
0
  6
CONTINUOUS
 62
     7
 10
873.1408270169
 20
242.7123626737
 30
0.0
 11
896.7408264149
 21
242.7123626737
 31
0.0
  0
LINE
  5
3ED
  8
0
  6
CONTINUOUS
 62
     7
 10
873.1408270169
 20
242.7123626737
 30
0.0
 11
873.1408270169
 21
238.9268240003
 31
0.0
  0
LINE
  5
3EE
  8
0
  6
CONTINUOUS
 62
     7
 10
873.1408270169
 20
238.9268240003
 30
0.0
 11
872.9408266116
 21
238.9268240003
 31
0.0
  0
LINE
  5
3EF
  8
0
  6
CONTINUOUS
 62
     7
 10
872.9408266116
 20
242.5131162671
 30
0.0
 11
872.9408266116
 21
238.9268240003
 31
0.0
  0
ARC
  5
3F0
  8
0
  6
CONTINUOUS
 62
     7
 10
873.340058966
 20
242.5123648359
 30
0.0
 40
0.3992330615609622
 50
89.8898221581
 51
179.8921585708
  0
LINE
  5
3F1
  8
0
  6
CONTINUOUS
 62
     7
 10
873.3408266772
 20
242.9115971593
 30
0.0
 11
896.5408267546
 21
242.9115971593
 31
0.0
  0
ARC
  5
3F2
  8
0
  6
CONTINUOUS
 62
     7
 10
896.5410474929
 20
242.5110759493
 30
0.0
 40
0.4005212708030091
 50
41.541773146
 51
90.0315772844
  0
LINE
  5
3F3
  8
0
  6
CONTINUOUS
 62
     7
 10
872.9408266116
 20
242.5131162671
 30
0.0
 11
872.9408266116
 21
243.1162437467
 31
0.0
  0
LINE
  5
3F4
  8
0
  6
CONTINUOUS
 62
     7
 10
873.1408270169
 20
193.9690193204
 30
0.0
 11
872.9408266116
 21
193.9690193204
 31
0.0
  0
LINE
  5
3F5
  8
0
  6
CONTINUOUS
 62
     7
 10
872.9408266116
 20
193.9690193204
 30
0.0
 11
872.9408266116
 21
238.9268240003
 31
0.0
  0
LINE
  5
3F6
  8
0
  6
CONTINUOUS
 62
     7
 10
873.1408270169
 20
193.9690193204
 30
0.0
 11
873.1408270169
 21
238.9268240003
 31
0.0
  0
LINE
  5
3F7
  8
0
  6
CONTINUOUS
 62
     7
 10
896.7408264149
 20
193.9690193204
 30
0.0
 11
896.8408266175
 21
193.9690193204
 31
0.0
  0
LINE
  5
3F8
  8
0
  6
CONTINUOUS
 62
     7
 10
896.7408264149
 20
193.9690193204
 30
0.0
 11
896.7408264149
 21
238.9268240003
 31
0.0
  0
LINE
  5
3F9
  8
0
  6
CONTINUOUS
 62
     7
 10
874.2408270109
 20
194.3002065686
 30
0.0
 11
895.6408264209
 21
194.3002065686
 31
0.0
  0
LINE
  5
3FA
  8
0
  6
CONTINUOUS
 62
     7
 10
873.1408270169
 20
194.3002065686
 30
0.0
 11
874.2408270109
 21
194.3002065686
 31
0.0
  0
LINE
  5
3FB
  8
0
  6
CONTINUOUS
 62
     7
 10
895.6408264209
 20
194.3002065686
 30
0.0
 11
896.7408264149
 21
194.3002065686
 31
0.0
  0
ARC
  5
3FC
  8
0
  6
CONTINUOUS
 62
     7
 10
895.6415753883
 20
193.5697681818
 30
0.0
 40
0.3992518410620658
 50
0.1105364818
 51
90.1074827893
  0
LINE
  5
3FD
  8
0
  6
CONTINUOUS
 62
     7
 10
874.0408266056
 20
193.7697729138
 30
0.0
 11
895.8408268262
 21
193.7697729138
 31
0.0
  0
ARC
  5
3FE
  8
0
  6
CONTINUOUS
 62
     7
 10
874.2400776206
 20
193.5697686063
 30
0.0
 40
0.3992514173887124
 50
89.8924564134
 51
179.8895243155
  0
LINE
  5
3FF
  8
0
  6
CONTINUOUS
 62
     7
 10
874.2408270109
 20
193.9690193204
 30
0.0
 11
895.6408264209
 21
193.9690193204
 31
0.0
  0
LINE
  5
400
  8
0
  6
CONTINUOUS
 62
     7
 10
896.0408264864
 20
193.5705384282
 30
0.0
 11
896.0408264864
 21
193.1501230268
 31
0.0
  0
LINE
  5
401
  8
0
  6
CONTINUOUS
 62
     7
 10
873.8408269454
 20
193.5705384282
 30
0.0
 11
873.8408269454
 21
190.4110988645
 31
0.0
  0
LINE
  5
402
  8
0
  6
CONTINUOUS
 62
     7
 10
895.8408268262
 20
193.7697729138
 30
0.0
 11
895.8408268262
 21
190.4110988645
 31
0.0
  0
LINE
  5
403
  8
0
  6
CONTINUOUS
 62
     7
 10
874.0408266056
 20
193.7697729138
 30
0.0
 11
874.0408266056
 21
190.4110988645
 31
0.0
  0
LINE
  5
404
  8
0
  6
CONTINUOUS
 62
     7
 10
873.8408269454
 20
193.5705384282
 30
0.0
 11
873.8408269454
 21
194.3002065686
 31
0.0
  0
LINE
  5
405
  8
0
  6
CONTINUOUS
 62
     7
 10
896.0408264864
 20
194.3002065686
 30
0.0
 11
896.0408264864
 21
193.5705384282
 31
0.0
  0
LINE
  5
406
  8
0
  6
CONTINUOUS
 62
     7
 10
874.0408266056
 20
190.9784516362
 30
0.0
 11
895.8408268262
 21
190.9784516362
 31
0.0
  0
LINE
  5
407
  8
0
  6
CONTINUOUS
 62
     7
 10
1007.8408213425
 20
108.0110987691
 30
0.0
 11
986.0408278275
 21
108.0110987691
 31
0.0
  0
ARC
  5
408
  8
0
  6
CONTINUOUS
 62
     7
 10
1007.6408266831
 20
108.2111008672
 30
0.0
 40
0.4000000000000057
 50
270.0
 51
0.0
  0
LINE
  5
409
  8
0
  6
CONTINUOUS
 62
     7
 10
986.2408252526
 20
107.811101344
 30
0.0
 11
1007.6408239175
 21
107.811101344
 31
0.0
  0
ARC
  5
40A
  8
0
  6
CONTINUOUS
 62
     7
 10
986.2408266831
 20
108.2111008672
 30
0.0
 40
0.4000000000000909
 50
180.0
 51
270.0
  0
LINE
  5
40B
  8
0
  6
CONTINUOUS
 62
     7
 10
1008.0408306885
 20
108.4110995797
 30
0.0
 11
1008.0408306885
 21
108.2111021546
 31
0.0
  0
LINE
  5
40C
  8
0
  6
CONTINUOUS
 62
     7
 10
985.8408304024
 20
110.4111036328
 30
0.0
 11
985.8408304024
 21
108.2111021546
 31
0.0
  0
LINE
  5
40D
  8
0
  6
CONTINUOUS
 62
     7
 10
1007.8408213425
 20
110.4111036328
 30
0.0
 11
1007.8408213425
 21
108.0110987691
 31
0.0
  0
LINE
  5
40E
  8
0
  6
CONTINUOUS
 62
     7
 10
986.0408278275
 20
108.0110987691
 30
0.0
 11
986.0408278275
 21
110.4111036328
 31
0.0
  0
LINE
  5
40F
  8
0
  6
CONTINUOUS
 62
     7
 10
1008.7408276368
 20
238.9268240003
 30
0.0
 11
1008.8408323098
 21
238.9268240003
 31
0.0
  0
LINE
  5
410
  8
0
  6
CONTINUOUS
 62
     7
 10
1008.7408276368
 20
238.9268240003
 30
0.0
 11
1008.7408276368
 21
242.7123626737
 31
0.0
  0
LINE
  5
411
  8
0
  6
CONTINUOUS
 62
     7
 10
985.1408215333
 20
242.7123626737
 30
0.0
 11
1008.7408276368
 21
242.7123626737
 31
0.0
  0
LINE
  5
412
  8
0
  6
CONTINUOUS
 62
     7
 10
985.1408215333
 20
242.7123626737
 30
0.0
 11
985.1408215333
 21
238.9268240003
 31
0.0
  0
LINE
  5
413
  8
0
  6
CONTINUOUS
 62
     7
 10
985.1408215333
 20
238.9268240003
 30
0.0
 11
984.9408241082
 21
238.9268240003
 31
0.0
  0
LINE
  5
414
  8
0
  6
CONTINUOUS
 62
     7
 10
984.9408241082
 20
242.5131162671
 30
0.0
 11
984.9408241082
 21
238.9268240003
 31
0.0
  0
ARC
  5
415
  8
0
  6
CONTINUOUS
 62
     7
 10
985.340056638
 20
242.5123646727
 30
0.0
 40
0.3992332372968918
 50
89.8888850414
 51
179.8921352073
  0
LINE
  5
416
  8
0
  6
CONTINUOUS
 62
     7
 10
985.3408308793
 20
242.9115971593
 30
0.0
 11
1008.5408302117
 21
242.9115971593
 31
0.0
  0
ARC
  5
417
  8
0
  6
CONTINUOUS
 62
     7
 10
1008.5410088388
 20
242.5109773384
 30
0.0
 40
0.4006198606755838
 50
41.5481229252
 51
90.0255468604
  0
LINE
  5
418
  8
0
  6
CONTINUOUS
 62
     7
 10
984.9408241082
 20
242.5131162671
 30
0.0
 11
984.9408241082
 21
243.1162437467
 31
0.0
  0
LINE
  5
419
  8
0
  6
CONTINUOUS
 62
     7
 10
985.1408215333
 20
193.9690193204
 30
0.0
 11
984.9408241082
 21
193.9690193204
 31
0.0
  0
LINE
  5
41A
  8
0
  6
CONTINUOUS
 62
     7
 10
984.9408241082
 20
193.9690193204
 30
0.0
 11
984.9408241082
 21
238.9268240003
 31
0.0
  0
LINE
  5
41B
  8
0
  6
CONTINUOUS
 62
     7
 10
985.1408215333
 20
193.9690193204
 30
0.0
 11
985.1408215333
 21
238.9268240003
 31
0.0
  0
LINE
  5
41C
  8
0
  6
CONTINUOUS
 62
     7
 10
1008.7408276368
 20
193.9690193204
 30
0.0
 11
1008.8408323098
 21
193.9690193204
 31
0.0
  0
LINE
  5
41D
  8
0
  6
CONTINUOUS
 62
     7
 10
1008.7408276368
 20
193.9690193204
 30
0.0
 11
1008.7408276368
 21
238.9268240003
 31
0.0
  0
LINE
  5
41E
  8
0
  6
CONTINUOUS
 62
     7
 10
986.2408252526
 20
194.3002065686
 30
0.0
 11
1007.6408239175
 21
194.3002065686
 31
0.0
  0
LINE
  5
41F
  8
0
  6
CONTINUOUS
 62
     7
 10
985.1408215333
 20
194.3002065686
 30
0.0
 11
986.2408252526
 21
194.3002065686
 31
0.0
  0
LINE
  5
420
  8
0
  6
CONTINUOUS
 62
     7
 10
1007.6408239175
 20
194.3002065686
 30
0.0
 11
1008.7408276368
 21
194.3002065686
 31
0.0
  0
ARC
  5
421
  8
0
  6
CONTINUOUS
 62
     7
 10
1007.6415674775
 20
193.5697560352
 30
0.0
 40
0.3992639776126243
 50
0.1122762161
 51
90.1067035352
  0
LINE
  5
422
  8
0
  6
CONTINUOUS
 62
     7
 10
986.0408278275
 20
193.7697729138
 30
0.0
 11
1007.8408213425
 21
193.7697729138
 31
0.0
  0
ARC
  5
423
  8
0
  6
CONTINUOUS
 62
     7
 10
986.2400766888
 20
193.5697730021
 30
0.0
 40
0.3992470200993061
 50
89.8925738485
 51
179.8901539317
  0
LINE
  5
424
  8
0
  6
CONTINUOUS
 62
     7
 10
986.2408252526
 20
193.9690193204
 30
0.0
 11
1007.6408239175
 21
193.9690193204
 31
0.0
  0
LINE
  5
425
  8
0
  6
CONTINUOUS
 62
     7
 10
1008.0408306885
 20
193.5705384282
 30
0.0
 11
1008.0408306885
 21
193.1501230268
 31
0.0
  0
LINE
  5
426
  8
0
  6
CONTINUOUS
 62
     7
 10
985.8408304024
 20
193.5705384282
 30
0.0
 11
985.8408304024
 21
190.4110988645
 31
0.0
  0
LINE
  5
427
  8
0
  6
CONTINUOUS
 62
     7
 10
1007.8408213425
 20
193.7697729138
 30
0.0
 11
1007.8408213425
 21
190.4110988645
 31
0.0
  0
LINE
  5
428
  8
0
  6
CONTINUOUS
 62
     7
 10
986.0408278275
 20
193.7697729138
 30
0.0
 11
986.0408278275
 21
190.4110988645
 31
0.0
  0
LINE
  5
429
  8
0
  6
CONTINUOUS
 62
     7
 10
985.8408304024
 20
193.5705384282
 30
0.0
 11
985.8408304024
 21
194.3002065686
 31
0.0
  0
LINE
  5
42A
  8
0
  6
CONTINUOUS
 62
     7
 10
1008.0408306885
 20
194.3002065686
 30
0.0
 11
1008.0408306885
 21
193.5705384282
 31
0.0
  0
LINE
  5
42B
  8
0
  6
CONTINUOUS
 62
     7
 10
986.0408278275
 20
190.9784516362
 30
0.0
 11
1007.8408213425
 21
190.9784516362
 31
0.0
  0
LINE
  5
42C
  8
0
  6
CONTINUOUS
 62
     7
 10
660.7408257294
 20
107.811101344
 30
0.0
 11
662.3408289719
 21
107.811101344
 31
0.0
  0
ARC
  5
42D
  8
0
  6
CONTINUOUS
 62
     7
 10
660.7408266831
 20
108.2111008672
 30
0.0
 40
0.4000000000000909
 50
180.0
 51
270.0
  0
LINE
  5
42E
  8
0
  6
CONTINUOUS
 62
     7
 10
660.3408308793
 20
192.8347310094
 30
0.0
 11
660.3408308793
 21
108.2111021546
 31
0.0
  0
ARC
  5
42F
  8
0
  6
CONTINUOUS
 62
     7
 10
660.7426194314
 20
192.8350315483
 30
0.0
 40
0.4017886645455815
 50
120.1497444168
 51
180.0428573921
  0
LINE
  5
430
  8
0
  6
CONTINUOUS
 62
     7
 10
660.5408163834
 20
108.0110987691
 30
0.0
 11
660.5408163834
 21
193.182464507
 31
0.0
  0
LINE
  5
431
  8
0
  6
CONTINUOUS
 62
     7
 10
660.5408163834
 20
108.0110987691
 30
0.0
 11
662.3408289719
 21
108.0110987691
 31
0.0
  0
LINE
  5
432
  8
0
  6
CONTINUOUS
 62
     7
 10
662.3408289719
 20
108.0110987691
 30
0.0
 11
662.3408289719
 21
107.811101344
 31
0.0
  0
ARC
  5
433
  8
0
  6
CONTINUOUS
 62
     7
 10
660.7408139235
 20
192.8350009155
 30
0.0
 40
0.4012627440441387
 50
89.9983142432
 51
119.8955498535
  0
LINE
  5
434
  8
0
  6
CONTINUOUS
 62
     7
 10
660.3408308793
 20
192.8347310094
 30
0.0
 11
660.3408308793
 21
194.6072420148
 31
0.0
  0
LINE
  5
435
  8
0
  6
CONTINUOUS
 62
     7
 10
660.5408163834
 20
193.1828698186
 30
0.0
 11
660.5408163834
 21
193.182464507
 31
0.0
  0
LINE
  5
436
  8
0
  6
CONTINUOUS
 62
     7
 10
660.5408163834
 20
193.0370172528
 30
0.0
 11
671.840831833
 21
193.0370172528
 31
0.0
  0
LINE
  5
437
  8
0
  6
CONTINUOUS
 62
     7
 10
660.7408257294
 20
193.2362636594
 30
0.0
 11
671.6408224869
 21
193.2362636594
 31
0.0
  0
ARC
  5
438
  8
0
  6
CONTINUOUS
 62
     7
 10
671.6415760001
 20
192.8370223092
 30
0.0
 40
0.3992420612210184
 50
0.1091344385
 51
90.1081377813
  0
LINE
  5
439
  8
0
  6
CONTINUOUS
 62
     7
 10
672.0408173371
 20
192.8377827672
 30
0.0
 11
672.0408173371
 21
192.4173673657
 31
0.0
  0
LINE
  5
43A
  8
0
  6
CONTINUOUS
 62
     7
 10
671.840831833
 20
190.4110988645
 30
0.0
 11
671.840831833
 21
193.0370172528
 31
0.0
  0
LINE
  5
43B
  8
0
  6
CONTINUOUS
 62
     7
 10
672.0408173371
 20
194.6072420148
 30
0.0
 11
672.0408173371
 21
192.8377827672
 31
0.0
  0
ARC
  5
43C
  8
0
  6
CONTINUOUS
 62
     7
 10
671.6408266831
 20
108.2111008672
 30
0.0
 40
0.4000000000000909
 50
270.0
 51
0.0
  0
LINE
  5
43D
  8
0
  6
CONTINUOUS
 62
     7
 10
671.840831833
 20
108.0110987691
 30
0.0
 11
662.3408289719
 21
108.0110987691
 31
0.0
  0
LINE
  5
43E
  8
0
  6
CONTINUOUS
 62
     7
 10
662.3408289719
 20
107.811101344
 30
0.0
 11
671.6408224869
 21
107.811101344
 31
0.0
  0
LINE
  5
43F
  8
0
  6
CONTINUOUS
 62
     7
 10
672.0408173371
 20
108.4110995797
 30
0.0
 11
672.0408173371
 21
108.2111021546
 31
0.0
  0
LINE
  5
440
  8
0
  6
CONTINUOUS
 62
     7
 10
671.840831833
 20
110.4111036328
 30
0.0
 11
671.840831833
 21
108.0110987691
 31
0.0
  0
LINE
  5
441
  8
0
  6
CONTINUOUS
 62
     7
 10
660.5408163834
 20
190.9784516362
 30
0.0
 11
671.840831833
 21
190.9784516362
 31
0.0
  0
LINE
  5
442
  8
0
  6
CONTINUOUS
 62
     7
 10
1107.1408243943
 20
108.0110987691
 30
0.0
 11
1108.9408369828
 21
108.0110987691
 31
0.0
  0
LINE
  5
443
  8
0
  6
CONTINUOUS
 62
     7
 10
1108.9408369828
 20
193.182464507
 30
0.0
 11
1108.9408369828
 21
108.0110987691
 31
0.0
  0
ARC
  5
444
  8
0
  6
CONTINUOUS
 62
     7
 10
1108.739091903
 20
192.8350648865
 30
0.0
 40
0.401730722715965
 50
359.9523816589
 51
59.8550165321
  0
LINE
  5
445
  8
0
  6
CONTINUOUS
 62
     7
 10
1109.1408224869
 20
192.8347310094
 30
0.0
 11
1109.1408224869
 21
108.2111021546
 31
0.0
  0
ARC
  5
446
  8
0
  6
CONTINUOUS
 62
     7
 10
1108.7408266831
 20
108.2111008672
 30
0.0
 40
0.4000000000000909
 50
270.0
 51
0.0
  0
LINE
  5
447
  8
0
  6
CONTINUOUS
 62
     7
 10
1107.1408243943
 20
107.811101344
 30
0.0
 11
1108.7408276368
 21
107.811101344
 31
0.0
  0
LINE
  5
448
  8
0
  6
CONTINUOUS
 62
     7
 10
1107.1408243943
 20
108.0110987691
 30
0.0
 11
1107.1408243943
 21
107.811101344
 31
0.0
  0
ARC
  5
449
  8
0
  6
CONTINUOUS
 62
     7
 10
1108.7408394427
 20
192.8350009155
 30
0.0
 40
0.4012627440441546
 50
60.1044501465
 51
90.0016857568
  0
LINE
  5
44A
  8
0
  6
CONTINUOUS
 62
     7
 10
1109.1408224869
 20
194.6072420148
 30
0.0
 11
1109.1408224869
 21
192.8347310094
 31
0.0
  0
LINE
  5
44B
  8
0
  6
CONTINUOUS
 62
     7
 10
1108.9408369828
 20
193.182464507
 30
0.0
 11
1108.9408369828
 21
193.1828698186
 31
0.0
  0
ARC
  5
44C
  8
0
  6
CONTINUOUS
 62
     7
 10
1097.8400773661
 20
192.8370223092
 30
0.0
 40
0.3992420612212459
 50
89.8918622187
 51
179.8908655615
  0
LINE
  5
44D
  8
0
  6
CONTINUOUS
 62
     7
 10
1097.4408360291
 20
192.8377827672
 30
0.0
 11
1097.4408360291
 21
194.6072420148
 31
0.0
  0
LINE
  5
44E
  8
0
  6
CONTINUOUS
 62
     7
 10
1097.6408215333
 20
193.0370172528
 30
0.0
 11
1108.9408369828
 21
193.0370172528
 31
0.0
  0
LINE
  5
44F
  8
0
  6
CONTINUOUS
 62
     7
 10
1097.8408308793
 20
193.2362636594
 30
0.0
 11
1108.7408276368
 21
193.2362636594
 31
0.0
  0
LINE
  5
450
  8
0
  6
CONTINUOUS
 62
     7
 10
1097.4408360291
 20
192.8377827672
 30
0.0
 11
1097.4408360291
 21
192.4173673657
 31
0.0
  0
LINE
  5
451
  8
0
  6
CONTINUOUS
 62
     7
 10
1097.6408215333
 20
193.0370172528
 30
0.0
 11
1097.6408215333
 21
190.4110988645
 31
0.0
  0
ARC
  5
452
  8
0
  6
CONTINUOUS
 62
     7
 10
1097.8408266831
 20
108.2111008672
 30
0.0
 40
0.4000000000000199
 50
180.0
 51
270.0
  0
LINE
  5
453
  8
0
  6
CONTINUOUS
 62
     7
 10
1107.1408243943
 20
108.0110987691
 30
0.0
 11
1097.6408215333
 21
108.0110987691
 31
0.0
  0
LINE
  5
454
  8
0
  6
CONTINUOUS
 62
     7
 10
1097.8408308793
 20
107.811101344
 30
0.0
 11
1107.1408243943
 21
107.811101344
 31
0.0
  0
LINE
  5
455
  8
0
  6
CONTINUOUS
 62
     7
 10
1097.4408360291
 20
108.4110995797
 30
0.0
 11
1097.4408360291
 21
108.2111021546
 31
0.0
  0
LINE
  5
456
  8
0
  6
CONTINUOUS
 62
     7
 10
1097.6408215333
 20
108.0110987691
 30
0.0
 11
1097.6408215333
 21
110.4111036328
 31
0.0
  0
LINE
  5
457
  8
0
  6
CONTINUOUS
 62
     7
 10
1097.6408215333
 20
190.9784516362
 30
0.0
 11
1108.9408369828
 21
190.9784516362
 31
0.0
  0
LINE
  5
458
  8
0
  6
CONTINUOUS
 62
     7
 10
673.9408226777
 20
121.6111024884
 30
0.0
 11
673.9408226777
 21
128.8110991982
 31
0.0
  0
ARC
  5
459
  8
0
  6
CONTINUOUS
 62
     7
 10
674.3408266831
 20
121.6111008672
 30
0.0
 40
0.3999999999999915
 50
180.0
 51
270.0
  0
LINE
  5
45A
  8
0
  6
CONTINUOUS
 62
     7
 10
759.1408224869
 20
121.2111016778
 30
0.0
 11
674.3408175278
 21
121.2111016778
 31
0.0
  0
ARC
  5
45B
  8
0
  6
CONTINUOUS
 62
     7
 10
759.1408266831
 20
121.6111008672
 30
0.0
 40
0.3999999999999915
 50
270.0
 51
0.0
  0
LINE
  5
45C
  8
0
  6
CONTINUOUS
 62
     7
 10
759.540829258
 20
128.8110991982
 30
0.0
 11
759.540829258
 21
121.6111024884
 31
0.0
  0
LINE
  5
45D
  8
0
  6
CONTINUOUS
 62
     7
 10
672.9408236314
 20
125.6110986737
 30
0.0
 11
672.9408236314
 21
128.0111035375
 31
0.0
  0
LINE
  5
45E
  8
0
  6
CONTINUOUS
 62
     7
 10
672.9408236314
 20
123.2110997705
 30
0.0
 11
672.9408236314
 21
125.6110986737
 31
0.0
  0
LINE
  5
45F
  8
0
  6
CONTINUOUS
 62
     7
 10
760.5408283044
 20
125.6110986737
 30
0.0
 11
760.5408283044
 21
128.0111035375
 31
0.0
  0
LINE
  5
460
  8
0
  6
CONTINUOUS
 62
     7
 10
760.5408283044
 20
123.2110997705
 30
0.0
 11
760.5408283044
 21
125.6110986737
 31
0.0
  0
LINE
  5
461
  8
0
  6
CONTINUOUS
 62
     7
 10
1009.8408313561
 20
121.1457451848
 30
0.0
 11
1009.8408313561
 21
128.8110991982
 31
0.0
  0
POLYLINE
  5
462
  8
0
  6
CONTINUOUS
 62
     7
 66
     1
 10
0.0
 20
0.0
 30
0.0
  0
VERTEX
  5
5D3
  8
0
  6
CONTINUOUS
 62
     7
 10
1009.8408313561
 20
121.1457451848
 30
0.0
  0
VERTEX
  5
5D4
  8
0
  6
CONTINUOUS
 62
     7
 10
1009.8703714181
 20
121.1424609689
 30
0.0
  0
VERTEX
  5
5D5
  8
0
  6
CONTINUOUS
 62
     7
 10
1009.9582882691
 20
121.1981257466
 30
0.0
  0
VERTEX
  5
5D6
  8
0
  6
CONTINUOUS
 62
     7
 10
1010.1024123002
 20
121.3113745717
 30
0.0
  0
VERTEX
  5
5D7
  8
0
  6
CONTINUOUS
 62
     7
 10
1010.2991910744
 20
121.4794119863
 30
0.0
  0
VERTEX
  5
5D8
  8
0
  6
CONTINUOUS
 62
     7
 10
1010.5437727738
 20
121.6981073884
 30
0.0
  0
VERTEX
  5
5D9
  8
0
  6
CONTINUOUS
 62
     7
 10
1010.8301373292
 20
121.9620725183
 30
0.0
  0
VERTEX
  5
5DA
  8
0
  6
CONTINUOUS
 62
     7
 10
1011.1512513924
 20
122.2648045091
 30
0.0
  0
VERTEX
  5
5DB
  8
0
  6
CONTINUOUS
 62
     7
 10
1011.4991875458
 20
122.5988587407
 30
0.0
  0
VERTEX
  5
5DC
  8
0
  6
CONTINUOUS
 62
     7
 10
1011.8653865624
 20
122.9560038117
 30
0.0
  0
VERTEX
  5
5DD
  8
0
  6
CONTINUOUS
 62
     7
 10
1012.2408242989
 20
123.3274420766
 30
0.0
  0
SEQEND
  5
61A
  8
0
  6
CONTINUOUS
 62
     7
  0
LINE
  5
463
  8
0
  6
CONTINUOUS
 62
     7
 10
1095.6408234406
 20
128.8110991982
 30
0.0
 11
1095.6408234406
 21
121.1457451848
 31
0.0
  0
POLYLINE
  5
464
  8
0
  6
CONTINUOUS
 62
     7
 66
     1
 10
0.0
 20
0.0
 30
0.0
  0
VERTEX
  5
5DE
  8
0
  6
CONTINUOUS
 62
     7
 10
1095.6408234406
 20
121.1457451848
 30
0.0
  0
VERTEX
  5
5DF
  8
0
  6
CONTINUOUS
 62
     7
 10
1095.6112833787
 20
121.1424609689
 30
0.0
  0
VERTEX
  5
5E0
  8
0
  6
CONTINUOUS
 62
     7
 10
1095.5233546067
 20
121.1981257466
 30
0.0
  0
VERTEX
  5
5E1
  8
0
  6
CONTINUOUS
 62
     7
 10
1095.3792305756
 20
121.3113745717
 30
0.0
  0
VERTEX
  5
5E2
  8
0
  6
CONTINUOUS
 62
     7
 10
1095.1824637223
 20
121.4794119863
 30
0.0
  0
VERTEX
  5
5E3
  8
0
  6
CONTINUOUS
 62
     7
 10
1094.9378939439
 20
121.6981073884
 30
0.0
  0
VERTEX
  5
5E4
  8
0
  6
CONTINUOUS
 62
     7
 10
1094.6515055466
 20
121.9620725183
 30
0.0
  0
VERTEX
  5
5E5
  8
0
  6
CONTINUOUS
 62
     7
 10
1094.3304034043
 20
122.2648045091
 30
0.0
  0
VERTEX
  5
5E6
  8
0
  6
CONTINUOUS
 62
     7
 10
1093.9824791718
 20
122.5988587407
 30
0.0
  0
VERTEX
  5
5E7
  8
0
  6
CONTINUOUS
 62
     7
 10
1093.6162682343
 20
122.9560038117
 30
0.0
  0
VERTEX
  5
5E8
  8
0
  6
CONTINUOUS
 62
     7
 10
1093.2408304978
 20
123.3274420766
 30
0.0
  0
SEQEND
  5
619
  8
0
  6
CONTINUOUS
 62
     7
  0
LINE
  5
465
  8
0
  6
CONTINUOUS
 62
     7
 10
1009.9408241082
 20
107.9984149007
 30
0.0
 11
1009.9408241082
 21
121.1366137532
 31
0.0
  0
LINE
  5
466
  8
0
  6
CONTINUOUS
 62
     7
 10
1095.5408306885
 20
121.1366137532
 30
0.0
 11
1095.5408306885
 21
107.9984149007
 31
0.0
  0
LINE
  5
467
  8
0
  6
CONTINUOUS
 62
     7
 10
1008.9408250619
 20
123.2110997705
 30
0.0
 11
1008.9408250619
 21
128.0111035375
 31
0.0
  0
LINE
  5
468
  8
0
  6
CONTINUOUS
 62
     7
 10
1096.5408297349
 20
123.2110997705
 30
0.0
 11
1096.5408297349
 21
128.0111035375
 31
0.0
  0
LINE
  5
469
  8
0
  6
CONTINUOUS
 62
     7
 10
897.8408264089
 20
121.1457451848
 30
0.0
 11
897.8408264089
 21
128.8110991982
 31
0.0
  0
POLYLINE
  5
46A
  8
0
  6
CONTINUOUS
 62
     7
 66
     1
 10
0.0
 20
0.0
 30
0.0
  0
VERTEX
  5
5E9
  8
0
  6
CONTINUOUS
 62
     7
 10
897.8408264089
 20
121.1457451848
 30
0.0
  0
VERTEX
  5
5EA
  8
0
  6
CONTINUOUS
 62
     7
 10
897.8703739215
 20
121.1424609689
 30
0.0
  0
VERTEX
  5
5EB
  8
0
  6
CONTINUOUS
 62
     7
 10
897.9582907725
 20
121.1981257466
 30
0.0
  0
VERTEX
  5
5EC
  8
0
  6
CONTINUOUS
 62
     7
 10
898.1024103332
 20
121.3113745717
 30
0.0
  0
VERTEX
  5
5ED
  8
0
  6
CONTINUOUS
 62
     7
 10
898.2991861273
 20
121.4794119863
 30
0.0
  0
VERTEX
  5
5EE
  8
0
  6
CONTINUOUS
 62
     7
 10
898.5437708069
 20
121.6981073884
 30
0.0
  0
VERTEX
  5
5EF
  8
0
  6
CONTINUOUS
 62
     7
 10
898.8301428128
 20
121.9620725183
 30
0.0
  0
VERTEX
  5
5F0
  8
0
  6
CONTINUOUS
 62
     7
 10
899.1512494255
 20
122.2648045091
 30
0.0
  0
VERTEX
  5
5F1
  8
0
  6
CONTINUOUS
 62
     7
 10
899.4991855789
 20
122.5988587407
 30
0.0
  0
VERTEX
  5
5F2
  8
0
  6
CONTINUOUS
 62
     7
 10
899.8653845955
 20
122.9560038117
 30
0.0
  0
VERTEX
  5
5F3
  8
0
  6
CONTINUOUS
 62
     7
 10
900.2408268023
 20
123.3274420766
 30
0.0
  0
SEQEND
  5
618
  8
0
  6
CONTINUOUS
 62
     7
  0
LINE
  5
46B
  8
0
  6
CONTINUOUS
 62
     7
 10
983.6408289242
 20
128.8110991982
 30
0.0
 11
983.6408289242
 21
121.1457451848
 31
0.0
  0
POLYLINE
  5
46C
  8
0
  6
CONTINUOUS
 62
     7
 66
     1
 10
0.0
 20
0.0
 30
0.0
  0
VERTEX
  5
5F4
  8
0
  6
CONTINUOUS
 62
     7
 10
983.6408289242
 20
121.1457451848
 30
0.0
  0
VERTEX
  5
5F5
  8
0
  6
CONTINUOUS
 62
     7
 10
983.6112769414
 20
121.1424609689
 30
0.0
  0
VERTEX
  5
5F6
  8
0
  6
CONTINUOUS
 62
     7
 10
983.5233600903
 20
121.1981257466
 30
0.0
  0
VERTEX
  5
5F7
  8
0
  6
CONTINUOUS
 62
     7
 10
983.3792420197
 20
121.3113745717
 30
0.0
  0
VERTEX
  5
5F8
  8
0
  6
CONTINUOUS
 62
     7
 10
983.1824692059
 20
121.4794119863
 30
0.0
  0
VERTEX
  5
5F9
  8
0
  6
CONTINUOUS
 62
     7
 10
982.9378815461
 20
121.6981073884
 30
0.0
  0
VERTEX
  5
5FA
  8
0
  6
CONTINUOUS
 62
     7
 10
982.6515110303
 20
121.9620725183
 30
0.0
  0
VERTEX
  5
5FB
  8
0
  6
CONTINUOUS
 62
     7
 10
982.3304029275
 20
122.2648045091
 30
0.0
  0
VERTEX
  5
5FC
  8
0
  6
CONTINUOUS
 62
     7
 10
981.9824667741
 20
122.5988587407
 30
0.0
  0
VERTEX
  5
5FD
  8
0
  6
CONTINUOUS
 62
     7
 10
981.6162677575
 20
122.9560038117
 30
0.0
  0
VERTEX
  5
5FE
  8
0
  6
CONTINUOUS
 62
     7
 10
981.2408240605
 20
123.3274420766
 30
0.0
  0
SEQEND
  5
617
  8
0
  6
CONTINUOUS
 62
     7
  0
LINE
  5
46D
  8
0
  6
CONTINUOUS
 62
     7
 10
897.9408266116
 20
107.9984149007
 30
0.0
 11
897.9408266116
 21
121.1366137532
 31
0.0
  0
LINE
  5
46E
  8
0
  6
CONTINUOUS
 62
     7
 10
983.5408242512
 20
121.1366137532
 30
0.0
 11
983.5408242512
 21
107.9984149007
 31
0.0
  0
LINE
  5
46F
  8
0
  6
CONTINUOUS
 62
     7
 10
896.9408268202
 20
123.2110997705
 30
0.0
 11
896.9408268202
 21
128.0111035375
 31
0.0
  0
LINE
  5
470
  8
0
  6
CONTINUOUS
 62
     7
 10
984.540829258
 20
123.2110997705
 30
0.0
 11
984.540829258
 21
128.0111035375
 31
0.0
  0
LINE
  5
471
  8
0
  6
CONTINUOUS
 62
     7
 10
785.840824442
 20
121.1457451848
 30
0.0
 11
785.840824442
 21
128.8110991982
 31
0.0
  0
POLYLINE
  5
472
  8
0
  6
CONTINUOUS
 62
     7
 66
     1
 10
0.0
 20
0.0
 30
0.0
  0
VERTEX
  5
5FF
  8
0
  6
CONTINUOUS
 62
     7
 10
785.840824442
 20
121.1457451848
 30
0.0
  0
VERTEX
  5
600
  8
0
  6
CONTINUOUS
 62
     7
 10
785.8703764249
 20
121.1424609689
 30
0.0
  0
VERTEX
  5
601
  8
0
  6
CONTINUOUS
 62
     7
 10
785.9582932759
 20
121.1981257466
 30
0.0
  0
VERTEX
  5
602
  8
0
  6
CONTINUOUS
 62
     7
 10
786.1024113465
 20
121.3113745717
 30
0.0
  0
VERTEX
  5
603
  8
0
  6
CONTINUOUS
 62
     7
 10
786.2991841603
 20
121.4794119863
 30
0.0
  0
VERTEX
  5
604
  8
0
  6
CONTINUOUS
 62
     7
 10
786.5437718201
 20
121.6981073884
 30
0.0
  0
VERTEX
  5
605
  8
0
  6
CONTINUOUS
 62
     7
 10
786.830142336
 20
121.9620725183
 30
0.0
  0
VERTEX
  5
606
  8
0
  6
CONTINUOUS
 62
     7
 10
787.1512504388
 20
122.2648045091
 30
0.0
  0
VERTEX
  5
607
  8
0
  6
CONTINUOUS
 62
     7
 10
787.4991865922
 20
122.5988587407
 30
0.0
  0
VERTEX
  5
608
  8
0
  6
CONTINUOUS
 62
     7
 10
787.8653856087
 20
122.9560038117
 30
0.0
  0
VERTEX
  5
609
  8
0
  6
CONTINUOUS
 62
     7
 10
788.2408293057
 20
123.3274420766
 30
0.0
  0
SEQEND
  5
616
  8
0
  6
CONTINUOUS
 62
     7
  0
LINE
  5
473
  8
0
  6
CONTINUOUS
 62
     7
 10
871.6408269573
 20
128.8110991982
 30
0.0
 11
871.6408269573
 21
121.1457451848
 31
0.0
  0
POLYLINE
  5
474
  8
0
  6
CONTINUOUS
 62
     7
 66
     1
 10
0.0
 20
0.0
 30
0.0
  0
VERTEX
  5
60A
  8
0
  6
CONTINUOUS
 62
     7
 10
871.6408269573
 20
121.1457451848
 30
0.0
  0
VERTEX
  5
60B
  8
0
  6
CONTINUOUS
 62
     7
 10
871.6112794448
 20
121.1424609689
 30
0.0
  0
VERTEX
  5
60C
  8
0
  6
CONTINUOUS
 62
     7
 10
871.5233625937
 20
121.1981257466
 30
0.0
  0
VERTEX
  5
60D
  8
0
  6
CONTINUOUS
 62
     7
 10
871.379243033
 20
121.3113745717
 30
0.0
  0
VERTEX
  5
60E
  8
0
  6
CONTINUOUS
 62
     7
 10
871.182467239
 20
121.4794119863
 30
0.0
  0
VERTEX
  5
60F
  8
0
  6
CONTINUOUS
 62
     7
 10
870.9378825594
 20
121.6981073884
 30
0.0
  0
VERTEX
  5
610
  8
0
  6
CONTINUOUS
 62
     7
 10
870.6515105534
 20
121.9620725183
 30
0.0
  0
VERTEX
  5
611
  8
0
  6
CONTINUOUS
 62
     7
 10
870.3304039407
 20
122.2648045091
 30
0.0
  0
VERTEX
  5
612
  8
0
  6
CONTINUOUS
 62
     7
 10
869.9824677873
 20
122.5988587407
 30
0.0
  0
VERTEX
  5
613
  8
0
  6
CONTINUOUS
 62
     7
 10
869.6162687708
 20
122.9560038117
 30
0.0
  0
VERTEX
  5
614
  8
0
  6
CONTINUOUS
 62
     7
 10
869.2408265639
 20
123.3274420766
 30
0.0
  0
SEQEND
  5
615
  8
0
  6
CONTINUOUS
 62
     7
  0
LINE
  5
475
  8
0
  6
CONTINUOUS
 62
     7
 10
785.940829115
 20
107.9984149007
 30
0.0
 11
785.940829115
 21
121.1366137532
 31
0.0
  0
LINE
  5
476
  8
0
  6
CONTINUOUS
 62
     7
 10
871.5408267546
 20
121.1366137532
 30
0.0
 11
871.5408267546
 21
107.9984149007
 31
0.0
  0
LINE
  5
477
  8
0
  6
CONTINUOUS
 62
     7
 10
784.9408241082
 20
123.2110997705
 30
0.0
 11
784.9408241082
 21
128.0111035375
 31
0.0
  0
LINE
  5
478
  8
0
  6
CONTINUOUS
 62
     7
 10
872.540826546
 20
123.2110997705
 30
0.0
 11
872.540826546
 21
128.0111035375
 31
0.0
  0
CIRCLE
  5
479
  8
0
  6
CONTINUOUS
 62
     7
 10
878.7408266831
 20
185.8111008672
 30
0.0
 40
1.100000000000023
  0
CIRCLE
  5
47A
  8
0
  6
CONTINUOUS
 62
     7
 10
878.7408266831
 20
113.8111008672
 30
0.0
 40
1.100000000000023
  0
CIRCLE
  5
47B
  8
0
  6
CONTINUOUS
 62
     7
 10
778.7408266831
 20
185.8111008672
 30
0.0
 40
1.100000000000136
  0
CIRCLE
  5
47C
  8
0
  6
CONTINUOUS
 62
     7
 10
778.7408266831
 20
113.8111008672
 30
0.0
 40
1.100000000000136
  0
LINE
  5
47D
  8
0
  6
CONTINUOUS
 62
     7
 10
884.7408266831
 20
184.4111045865
 30
0.0
 11
882.7408267278
 21
184.4111045865
 31
0.0
  0
LINE
  5
47E
  8
0
  6
CONTINUOUS
 62
     7
 10
884.7408266831
 20
182.4111064939
 30
0.0
 11
884.7408266831
 21
184.4111045865
 31
0.0
  0
LINE
  5
47F
  8
0
  6
CONTINUOUS
 62
     7
 10
882.7408267278
 20
182.4111064939
 30
0.0
 11
884.7408266831
 21
182.4111064939
 31
0.0
  0
LINE
  5
480
  8
0
  6
CONTINUOUS
 62
     7
 10
882.7408267278
 20
119.2111035851
 30
0.0
 11
882.7408267278
 21
182.4111064939
 31
0.0
  0
LINE
  5
481
  8
0
  6
CONTINUOUS
 62
     7
 10
884.7408266831
 20
119.2111035851
 30
0.0
 11
882.7408267278
 21
119.2111035851
 31
0.0
  0
LINE
  5
482
  8
0
  6
CONTINUOUS
 62
     7
 10
884.7408266831
 20
117.211099532
 30
0.0
 11
884.7408266831
 21
119.2111035851
 31
0.0
  0
LINE
  5
483
  8
0
  6
CONTINUOUS
 62
     7
 10
882.7408267278
 20
117.211099532
 30
0.0
 11
884.7408266831
 21
117.211099532
 31
0.0
  0
LINE
  5
484
  8
0
  6
CONTINUOUS
 62
     7
 10
882.7408267278
 20
112.4111017255
 30
0.0
 11
882.7408267278
 21
117.211099532
 31
0.0
  0
ARC
  5
485
  8
0
  6
CONTINUOUS
 62
     7
 10
880.7408266831
 20
112.4111008672
 30
0.0
 40
2.000000000000014
 50
270.0
 51
0.0
  0
LINE
  5
486
  8
0
  6
CONTINUOUS
 62
     7
 10
873.4408268798
 20
110.4111036328
 30
0.0
 11
880.7408267725
 21
110.4111036328
 31
0.0
  0
LINE
  5
487
  8
0
  6
CONTINUOUS
 62
     7
 10
873.4408268798
 20
110.4111036328
 30
0.0
 11
873.4408268798
 21
108.4110995797
 31
0.0
  0
LINE
  5
488
  8
0
  6
CONTINUOUS
 62
     7
 10
873.4408268798
 20
108.4110995797
 30
0.0
 11
872.6408267487
 21
108.4110995797
 31
0.0
  0
LINE
  5
489
  8
0
  6
CONTINUOUS
 62
     7
 10
872.6408267487
 20
181.2686523465
 30
0.0
 11
872.6408267487
 21
108.4110995797
 31
0.0
  0
LINE
  5
48A
  8
0
  6
CONTINUOUS
 62
     7
 10
784.8408253957
 20
181.2686523465
 30
0.0
 11
872.6408267487
 21
181.2686523465
 31
0.0
  0
LINE
  5
48B
  8
0
  6
CONTINUOUS
 62
     7
 10
784.8408253957
 20
108.4110995797
 30
0.0
 11
784.8408253957
 21
181.2686523465
 31
0.0
  0
LINE
  5
48C
  8
0
  6
CONTINUOUS
 62
     7
 10
784.0408297349
 20
108.4110995797
 30
0.0
 11
784.8408253957
 21
108.4110995797
 31
0.0
  0
LINE
  5
48D
  8
0
  6
CONTINUOUS
 62
     7
 10
784.0408297349
 20
108.4110995797
 30
0.0
 11
784.0408297349
 21
110.4111036328
 31
0.0
  0
LINE
  5
48E
  8
0
  6
CONTINUOUS
 62
     7
 10
776.7408223916
 20
110.4111036328
 30
0.0
 11
784.0408297349
 21
110.4111036328
 31
0.0
  0
ARC
  5
48F
  8
0
  6
CONTINUOUS
 62
     7
 10
776.7408266831
 20
112.4111008672
 30
0.0
 40
2.0
 50
180.0
 51
270.0
  0
LINE
  5
490
  8
0
  6
CONTINUOUS
 62
     7
 10
774.7408242989
 20
117.211099532
 30
0.0
 11
774.7408242989
 21
112.4111017255
 31
0.0
  0
LINE
  5
491
  8
0
  6
CONTINUOUS
 62
     7
 10
772.7408262063
 20
117.211099532
 30
0.0
 11
774.7408242989
 21
117.211099532
 31
0.0
  0
LINE
  5
492
  8
0
  6
CONTINUOUS
 62
     7
 10
772.7408262063
 20
119.2111035851
 30
0.0
 11
772.7408262063
 21
117.211099532
 31
0.0
  0
LINE
  5
493
  8
0
  6
CONTINUOUS
 62
     7
 10
774.7408242989
 20
119.2111035851
 30
0.0
 11
772.7408262063
 21
119.2111035851
 31
0.0
  0
LINE
  5
494
  8
0
  6
CONTINUOUS
 62
     7
 10
774.7408242989
 20
182.4111064939
 30
0.0
 11
774.7408242989
 21
119.2111035851
 31
0.0
  0
LINE
  5
495
  8
0
  6
CONTINUOUS
 62
     7
 10
772.7408262063
 20
182.4111064939
 30
0.0
 11
774.7408242989
 21
182.4111064939
 31
0.0
  0
LINE
  5
496
  8
0
  6
CONTINUOUS
 62
     7
 10
772.7408262063
 20
184.4111045865
 30
0.0
 11
772.7408262063
 21
182.4111064939
 31
0.0
  0
LINE
  5
497
  8
0
  6
CONTINUOUS
 62
     7
 10
774.7408242989
 20
184.4111045865
 30
0.0
 11
772.7408262063
 21
184.4111045865
 31
0.0
  0
LINE
  5
498
  8
0
  6
CONTINUOUS
 62
     7
 10
774.7408242989
 20
188.4111007718
 30
0.0
 11
774.7408242989
 21
184.4111045865
 31
0.0
  0
ARC
  5
499
  8
0
  6
CONTINUOUS
 62
     7
 10
776.7408266831
 20
188.4111008672
 30
0.0
 40
2.0
 50
90.0
 51
180.0
  0
LINE
  5
49A
  8
0
  6
CONTINUOUS
 62
     7
 10
784.0408297349
 20
190.4110988645
 30
0.0
 11
776.7408223916
 21
190.4110988645
 31
0.0
  0
LINE
  5
49B
  8
0
  6
CONTINUOUS
 62
     7
 10
784.0408297349
 20
190.4110988645
 30
0.0
 11
784.0408297349
 21
192.4110969571
 31
0.0
  0
LINE
  5
49C
  8
0
  6
CONTINUOUS
 62
     7
 10
784.0408297349
 20
192.4110969571
 30
0.0
 11
784.8408253957
 21
192.4110969571
 31
0.0
  0
LINE
  5
49D
  8
0
  6
CONTINUOUS
 62
     7
 10
784.8408253957
 20
192.4110969571
 30
0.0
 11
784.8408253957
 21
242.8451260594
 31
0.0
  0
LINE
  5
49E
  8
0
  6
CONTINUOUS
 62
     7
 10
784.8408253957
 20
242.8451260594
 30
0.0
 11
872.6408267487
 21
242.8451260594
 31
0.0
  0
LINE
  5
49F
  8
0
  6
CONTINUOUS
 62
     7
 10
872.6408267487
 20
192.4110969571
 30
0.0
 11
872.6408267487
 21
242.8451260594
 31
0.0
  0
LINE
  5
4A0
  8
0
  6
CONTINUOUS
 62
     7
 10
873.4408268798
 20
192.4110969571
 30
0.0
 11
872.6408267487
 21
192.4110969571
 31
0.0
  0
LINE
  5
4A1
  8
0
  6
CONTINUOUS
 62
     7
 10
873.4408268798
 20
192.4110969571
 30
0.0
 11
873.4408268798
 21
190.4110988645
 31
0.0
  0
LINE
  5
4A2
  8
0
  6
CONTINUOUS
 62
     7
 10
880.7408267725
 20
190.4110988645
 30
0.0
 11
873.4408268798
 21
190.4110988645
 31
0.0
  0
ARC
  5
4A3
  8
0
  6
CONTINUOUS
 62
     7
 10
880.7408266831
 20
188.4111008672
 30
0.0
 40
2.0
 50
0.0
 51
90.0
  0
LINE
  5
4A4
  8
0
  6
CONTINUOUS
 62
     7
 10
882.7408267278
 20
184.4111045865
 30
0.0
 11
882.7408267278
 21
188.4111007718
 31
0.0
  0
LINE
  5
4A5
  8
0
  6
CONTINUOUS
 62
     7
 10
784.8408253957
 20
128.8110991982
 30
0.0
 11
872.6408267487
 21
128.8110991982
 31
0.0
  0
LINE
  5
4A6
  8
0
  6
CONTINUOUS
 62
     7
 10
784.0408297349
 20
192.4110969571
 30
0.0
 11
784.0408297349
 21
193.1501230268
 31
0.0
  0
LINE
  5
4A7
  8
0
  6
CONTINUOUS
 62
     7
 10
784.8408253957
 20
243.0746277837
 30
0.0
 11
872.6408267487
 21
243.0746277837
 31
0.0
  0
LINE
  5
4A8
  8
0
  6
CONTINUOUS
 62
     7
 10
872.6408267487
 20
242.8451260594
 30
0.0
 11
872.6408267487
 21
243.0746277837
 31
0.0
  0
LINE
  5
4A9
  8
0
  6
CONTINUOUS
 62
     7
 10
784.8408253957
 20
242.8451260594
 30
0.0
 11
784.8408253957
 21
243.0746277837
 31
0.0
  0
LINE
  5
4AA
  8
0
  6
CONTINUOUS
 62
     7
 10
873.4408268798
 20
194.1931327847
 30
0.0
 11
873.4408268798
 21
192.4110969571
 31
0.0
  0
LINE
  5
4AB
  8
0
  6
CONTINUOUS
 62
     7
 10
784.9408241082
 20
243.375929263
 30
0.0
 11
784.9408241082
 21
243.0746277837
 31
0.0
  0
LINE
  5
4AC
  8
0
  6
CONTINUOUS
 62
     7
 10
872.540826546
 20
243.375929263
 30
0.0
 11
872.540826546
 21
243.0746277837
 31
0.0
  0
LINE
  5
4AD
  8
0
  6
CONTINUOUS
 62
     7
 10
784.9484356213
 20
243.3835348157
 30
0.0
 11
784.9408241082
 21
243.375929263
 31
0.0
  0
LINE
  5
4AE
  8
0
  6
CONTINUOUS
 62
     7
 10
872.540826546
 20
243.375929263
 30
0.0
 11
872.5332157779
 21
243.3835348157
 31
0.0
  0
LINE
  5
4AF
  8
0
  6
CONTINUOUS
 62
     7
 10
873.4408268798
 20
194.1961726216
 30
0.0
 11
873.4408268798
 21
194.1931327847
 31
0.0
  0
CIRCLE
  5
4B0
  8
0
  6
CONTINUOUS
 62
     7
 10
1102.7408266831
 20
185.8111008672
 30
0.0
 40
1.099999999999909
  0
CIRCLE
  5
4B1
  8
0
  6
CONTINUOUS
 62
     7
 10
1102.7408266831
 20
113.8111008672
 30
0.0
 40
1.099999999999909
  0
CIRCLE
  5
4B2
  8
0
  6
CONTINUOUS
 62
     7
 10
1002.7408266831
 20
185.8111008672
 30
0.0
 40
1.099999999999909
  0
CIRCLE
  5
4B3
  8
0
  6
CONTINUOUS
 62
     7
 10
1002.7408266831
 20
113.8111008672
 30
0.0
 40
1.099999999999909
  0
LINE
  5
4B4
  8
0
  6
CONTINUOUS
 62
     7
 10
1108.7408276368
 20
184.4111045865
 30
0.0
 11
1106.7408295441
 21
184.4111045865
 31
0.0
  0
LINE
  5
4B5
  8
0
  6
CONTINUOUS
 62
     7
 10
1108.7408276368
 20
182.4111064939
 30
0.0
 11
1108.7408276368
 21
184.4111045865
 31
0.0
  0
LINE
  5
4B6
  8
0
  6
CONTINUOUS
 62
     7
 10
1106.7408295441
 20
182.4111064939
 30
0.0
 11
1108.7408276368
 21
182.4111064939
 31
0.0
  0
LINE
  5
4B7
  8
0
  6
CONTINUOUS
 62
     7
 10
1106.7408295441
 20
119.2111035851
 30
0.0
 11
1106.7408295441
 21
182.4111064939
 31
0.0
  0
LINE
  5
4B8
  8
0
  6
CONTINUOUS
 62
     7
 10
1108.7408276368
 20
119.2111035851
 30
0.0
 11
1106.7408295441
 21
119.2111035851
 31
0.0
  0
LINE
  5
4B9
  8
0
  6
CONTINUOUS
 62
     7
 10
1108.7408276368
 20
117.211099532
 30
0.0
 11
1108.7408276368
 21
119.2111035851
 31
0.0
  0
LINE
  5
4BA
  8
0
  6
CONTINUOUS
 62
     7
 10
1106.7408295441
 20
117.211099532
 30
0.0
 11
1108.7408276368
 21
117.211099532
 31
0.0
  0
LINE
  5
4BB
  8
0
  6
CONTINUOUS
 62
     7
 10
1106.7408295441
 20
112.4111017255
 30
0.0
 11
1106.7408295441
 21
117.211099532
 31
0.0
  0
ARC
  5
4BC
  8
0
  6
CONTINUOUS
 62
     7
 10
1104.7408266831
 20
112.4111008672
 30
0.0
 40
2.000000000000014
 50
270.0
 51
0.0
  0
LINE
  5
4BD
  8
0
  6
CONTINUOUS
 62
     7
 10
1097.4408360291
 20
110.4111036328
 30
0.0
 11
1104.7408314515
 21
110.4111036328
 31
0.0
  0
LINE
  5
4BE
  8
0
  6
CONTINUOUS
 62
     7
 10
1097.4408360291
 20
110.4111036328
 30
0.0
 11
1097.4408360291
 21
108.4110995797
 31
0.0
  0
LINE
  5
4BF
  8
0
  6
CONTINUOUS
 62
     7
 10
1097.4408360291
 20
108.4110995797
 30
0.0
 11
1096.6408224869
 21
108.4110995797
 31
0.0
  0
LINE
  5
4C0
  8
0
  6
CONTINUOUS
 62
     7
 10
1096.6408224869
 20
181.2686523465
 30
0.0
 11
1096.6408224869
 21
108.4110995797
 31
0.0
  0
LINE
  5
4C1
  8
0
  6
CONTINUOUS
 62
     7
 10
1008.8408323098
 20
181.2686523465
 30
0.0
 11
1096.6408224869
 21
181.2686523465
 31
0.0
  0
LINE
  5
4C2
  8
0
  6
CONTINUOUS
 62
     7
 10
1008.8408323098
 20
108.4110995797
 30
0.0
 11
1008.8408323098
 21
181.2686523465
 31
0.0
  0
LINE
  5
4C3
  8
0
  6
CONTINUOUS
 62
     7
 10
1008.0408306885
 20
108.4110995797
 30
0.0
 11
1008.8408323098
 21
108.4110995797
 31
0.0
  0
LINE
  5
4C4
  8
0
  6
CONTINUOUS
 62
     7
 10
1008.0408306885
 20
108.4110995797
 30
0.0
 11
1008.0408306885
 21
110.4111036328
 31
0.0
  0
LINE
  5
4C5
  8
0
  6
CONTINUOUS
 62
     7
 10
1000.7408233453
 20
110.4111036328
 30
0.0
 11
1008.0408306885
 21
110.4111036328
 31
0.0
  0
ARC
  5
4C6
  8
0
  6
CONTINUOUS
 62
     7
 10
1000.7408266831
 20
112.4111008672
 30
0.0
 40
2.0
 50
180.0
 51
270.0
  0
LINE
  5
4C7
  8
0
  6
CONTINUOUS
 62
     7
 10
998.7408252526
 20
117.211099532
 30
0.0
 11
998.7408252526
 21
112.4111017255
 31
0.0
  0
LINE
  5
4C8
  8
0
  6
CONTINUOUS
 62
     7
 10
996.74082716
 20
117.211099532
 30
0.0
 11
998.7408252526
 21
117.211099532
 31
0.0
  0
LINE
  5
4C9
  8
0
  6
CONTINUOUS
 62
     7
 10
996.74082716
 20
119.2111035851
 30
0.0
 11
996.74082716
 21
117.211099532
 31
0.0
  0
LINE
  5
4CA
  8
0
  6
CONTINUOUS
 62
     7
 10
998.7408252526
 20
119.2111035851
 30
0.0
 11
996.74082716
 21
119.2111035851
 31
0.0
  0
LINE
  5
4CB
  8
0
  6
CONTINUOUS
 62
     7
 10
998.7408252526
 20
182.4111064939
 30
0.0
 11
998.7408252526
 21
119.2111035851
 31
0.0
  0
LINE
  5
4CC
  8
0
  6
CONTINUOUS
 62
     7
 10
996.74082716
 20
184.4111045865
 30
0.0
 11
996.74082716
 21
182.4111064939
 31
0.0
  0
LINE
  5
4CD
  8
0
  6
CONTINUOUS
 62
     7
 10
998.7408252526
 20
184.4111045865
 30
0.0
 11
996.74082716
 21
184.4111045865
 31
0.0
  0
LINE
  5
4CE
  8
0
  6
CONTINUOUS
 62
     7
 10
998.7408252526
 20
188.4111007718
 30
0.0
 11
998.7408252526
 21
184.4111045865
 31
0.0
  0
ARC
  5
4CF
  8
0
  6
CONTINUOUS
 62
     7
 10
1000.7408266831
 20
188.4111008672
 30
0.0
 40
2.0
 50
90.0
 51
180.0
  0
LINE
  5
4D0
  8
0
  6
CONTINUOUS
 62
     7
 10
1008.0408306885
 20
190.4110988645
 30
0.0
 11
1000.7408233453
 21
190.4110988645
 31
0.0
  0
LINE
  5
4D1
  8
0
  6
CONTINUOUS
 62
     7
 10
1008.0408306885
 20
190.4110988645
 30
0.0
 11
1008.0408306885
 21
192.4110969571
 31
0.0
  0
LINE
  5
4D2
  8
0
  6
CONTINUOUS
 62
     7
 10
1008.0408306885
 20
192.4110969571
 30
0.0
 11
1008.8408323098
 21
192.4110969571
 31
0.0
  0
LINE
  5
4D3
  8
0
  6
CONTINUOUS
 62
     7
 10
1008.8408323098
 20
192.4110969571
 30
0.0
 11
1008.8408323098
 21
242.8451260594
 31
0.0
  0
LINE
  5
4D4
  8
0
  6
CONTINUOUS
 62
     7
 10
1008.8408323098
 20
242.8451260594
 30
0.0
 11
1096.6408224869
 21
242.8451260594
 31
0.0
  0
LINE
  5
4D5
  8
0
  6
CONTINUOUS
 62
     7
 10
1096.6408224869
 20
192.4110969571
 30
0.0
 11
1096.6408224869
 21
242.8451260594
 31
0.0
  0
LINE
  5
4D6
  8
0
  6
CONTINUOUS
 62
     7
 10
1097.4408360291
 20
192.4110969571
 30
0.0
 11
1096.6408224869
 21
192.4110969571
 31
0.0
  0
LINE
  5
4D7
  8
0
  6
CONTINUOUS
 62
     7
 10
1097.4408360291
 20
192.4110969571
 30
0.0
 11
1097.4408360291
 21
190.4110988645
 31
0.0
  0
LINE
  5
4D8
  8
0
  6
CONTINUOUS
 62
     7
 10
1104.7408314515
 20
190.4110988645
 30
0.0
 11
1097.4408360291
 21
190.4110988645
 31
0.0
  0
ARC
  5
4D9
  8
0
  6
CONTINUOUS
 62
     7
 10
1104.7408266831
 20
188.4111008672
 30
0.0
 40
2.0
 50
0.0
 51
90.0
  0
LINE
  5
4DA
  8
0
  6
CONTINUOUS
 62
     7
 10
1106.7408295441
 20
184.4111045865
 30
0.0
 11
1106.7408295441
 21
188.4111007718
 31
0.0
  0
LINE
  5
4DB
  8
0
  6
CONTINUOUS
 62
     7
 10
996.74082716
 20
182.4111064939
 30
0.0
 11
998.7408252526
 21
182.4111064939
 31
0.0
  0
LINE
  5
4DC
  8
0
  6
CONTINUOUS
 62
     7
 10
1008.8408323098
 20
128.8110991982
 30
0.0
 11
1096.6408224869
 21
128.8110991982
 31
0.0
  0
LINE
  5
4DD
  8
0
  6
CONTINUOUS
 62
     7
 10
1008.0408306885
 20
192.4110969571
 30
0.0
 11
1008.0408306885
 21
193.1501230268
 31
0.0
  0
LINE
  5
4DE
  8
0
  6
CONTINUOUS
 62
     7
 10
1008.8408323098
 20
243.0746277837
 30
0.0
 11
1096.6408224869
 21
243.0746277837
 31
0.0
  0
LINE
  5
4DF
  8
0
  6
CONTINUOUS
 62
     7
 10
1096.6408224869
 20
242.8451260594
 30
0.0
 11
1096.6408224869
 21
243.0746277837
 31
0.0
  0
LINE
  5
4E0
  8
0
  6
CONTINUOUS
 62
     7
 10
1008.8408323098
 20
242.8451260594
 30
0.0
 11
1008.8408323098
 21
243.0746277837
 31
0.0
  0
LINE
  5
4E1
  8
0
  6
CONTINUOUS
 62
     7
 10
1097.4408360291
 20
192.4173673657
 30
0.0
 11
1097.4408360291
 21
192.4110969571
 31
0.0
  0
LINE
  5
4E2
  8
0
  6
CONTINUOUS
 62
     7
 10
1008.9408250619
 20
243.375929263
 30
0.0
 11
1008.9408250619
 21
243.0746277837
 31
0.0
  0
LINE
  5
4E3
  8
0
  6
CONTINUOUS
 62
     7
 10
1096.5408297349
 20
243.375929263
 30
0.0
 11
1096.5408297349
 21
243.0746277837
 31
0.0
  0
LINE
  5
4E4
  8
0
  6
CONTINUOUS
 62
     7
 10
1008.9484425355
 20
243.3835348157
 30
0.0
 11
1008.9408250619
 21
243.375929263
 31
0.0
  0
LINE
  5
4E5
  8
0
  6
CONTINUOUS
 62
     7
 10
1096.5408297349
 20
243.375929263
 30
0.0
 11
1096.5332241822
 21
243.3835348157
 31
0.0
  0
CIRCLE
  5
4E6
  8
0
  6
CONTINUOUS
 62
     7
 10
766.7408266831
 20
185.8111008672
 30
0.0
 40
1.100000000000023
  0
CIRCLE
  5
4E7
  8
0
  6
CONTINUOUS
 62
     7
 10
766.7408266831
 20
113.8111008672
 30
0.0
 40
1.100000000000023
  0
CIRCLE
  5
4E8
  8
0
  6
CONTINUOUS
 62
     7
 10
666.7408266831
 20
185.8111008672
 30
0.0
 40
1.100000000000023
  0
CIRCLE
  5
4E9
  8
0
  6
CONTINUOUS
 62
     7
 10
666.7408266831
 20
113.8111008672
 30
0.0
 40
1.100000000000023
  0
LINE
  5
4EA
  8
0
  6
CONTINUOUS
 62
     7
 10
772.7408262063
 20
184.4111045865
 30
0.0
 11
770.7408281136
 21
184.4111045865
 31
0.0
  0
LINE
  5
4EB
  8
0
  6
CONTINUOUS
 62
     7
 10
770.7408281136
 20
182.4111064939
 30
0.0
 11
772.7408262063
 21
182.4111064939
 31
0.0
  0
LINE
  5
4EC
  8
0
  6
CONTINUOUS
 62
     7
 10
770.7408281136
 20
119.2111035851
 30
0.0
 11
770.7408281136
 21
182.4111064939
 31
0.0
  0
LINE
  5
4ED
  8
0
  6
CONTINUOUS
 62
     7
 10
772.7408262063
 20
119.2111035851
 30
0.0
 11
770.7408281136
 21
119.2111035851
 31
0.0
  0
LINE
  5
4EE
  8
0
  6
CONTINUOUS
 62
     7
 10
770.7408281136
 20
117.211099532
 30
0.0
 11
772.7408262063
 21
117.211099532
 31
0.0
  0
LINE
  5
4EF
  8
0
  6
CONTINUOUS
 62
     7
 10
770.7408281136
 20
112.4111017255
 30
0.0
 11
770.7408281136
 21
117.211099532
 31
0.0
  0
ARC
  5
4F0
  8
0
  6
CONTINUOUS
 62
     7
 10
768.7408266831
 20
112.4111008672
 30
0.0
 40
2.000000000000014
 50
270.0
 51
0.0
  0
LINE
  5
4F1
  8
0
  6
CONTINUOUS
 62
     7
 10
761.4408226777
 20
110.4111036328
 30
0.0
 11
768.740830021
 21
110.4111036328
 31
0.0
  0
LINE
  5
4F2
  8
0
  6
CONTINUOUS
 62
     7
 10
761.4408226777
 20
110.4111036328
 30
0.0
 11
761.4408226777
 21
108.4110995797
 31
0.0
  0
LINE
  5
4F3
  8
0
  6
CONTINUOUS
 62
     7
 10
761.4408226777
 20
108.4110995797
 30
0.0
 11
760.6408210564
 21
108.4110995797
 31
0.0
  0
LINE
  5
4F4
  8
0
  6
CONTINUOUS
 62
     7
 10
760.6408210564
 20
181.2686523465
 30
0.0
 11
760.6408210564
 21
108.4110995797
 31
0.0
  0
LINE
  5
4F5
  8
0
  6
CONTINUOUS
 62
     7
 10
672.8408308793
 20
181.2686523465
 30
0.0
 11
760.6408210564
 21
181.2686523465
 31
0.0
  0
LINE
  5
4F6
  8
0
  6
CONTINUOUS
 62
     7
 10
672.8408308793
 20
108.4110995797
 30
0.0
 11
672.8408308793
 21
181.2686523465
 31
0.0
  0
LINE
  5
4F7
  8
0
  6
CONTINUOUS
 62
     7
 10
672.0408173371
 20
108.4110995797
 30
0.0
 11
672.8408308793
 21
108.4110995797
 31
0.0
  0
LINE
  5
4F8
  8
0
  6
CONTINUOUS
 62
     7
 10
672.0408173371
 20
108.4110995797
 30
0.0
 11
672.0408173371
 21
110.4111036328
 31
0.0
  0
LINE
  5
4F9
  8
0
  6
CONTINUOUS
 62
     7
 10
664.7408219147
 20
110.4111036328
 30
0.0
 11
672.0408173371
 21
110.4111036328
 31
0.0
  0
ARC
  5
4FA
  8
0
  6
CONTINUOUS
 62
     7
 10
664.7408266831
 20
112.4111008672
 30
0.0
 40
2.0
 50
180.0
 51
270.0
  0
LINE
  5
4FB
  8
0
  6
CONTINUOUS
 62
     7
 10
662.7408238221
 20
117.211099532
 30
0.0
 11
662.7408238221
 21
112.4111017255
 31
0.0
  0
LINE
  5
4FC
  8
0
  6
CONTINUOUS
 62
     7
 10
660.7408257294
 20
117.211099532
 30
0.0
 11
662.7408238221
 21
117.211099532
 31
0.0
  0
LINE
  5
4FD
  8
0
  6
CONTINUOUS
 62
     7
 10
660.7408257294
 20
119.2111035851
 30
0.0
 11
660.7408257294
 21
117.211099532
 31
0.0
  0
LINE
  5
4FE
  8
0
  6
CONTINUOUS
 62
     7
 10
662.7408238221
 20
119.2111035851
 30
0.0
 11
660.7408257294
 21
119.2111035851
 31
0.0
  0
LINE
  5
4FF
  8
0
  6
CONTINUOUS
 62
     7
 10
662.7408238221
 20
182.4111064939
 30
0.0
 11
662.7408238221
 21
119.2111035851
 31
0.0
  0
LINE
  5
500
  8
0
  6
CONTINUOUS
 62
     7
 10
660.7408257294
 20
184.4111045865
 30
0.0
 11
660.7408257294
 21
182.4111064939
 31
0.0
  0
LINE
  5
501
  8
0
  6
CONTINUOUS
 62
     7
 10
662.7408238221
 20
184.4111045865
 30
0.0
 11
660.7408257294
 21
184.4111045865
 31
0.0
  0
LINE
  5
502
  8
0
  6
CONTINUOUS
 62
     7
 10
662.7408238221
 20
188.4111007718
 30
0.0
 11
662.7408238221
 21
184.4111045865
 31
0.0
  0
ARC
  5
503
  8
0
  6
CONTINUOUS
 62
     7
 10
664.7408266831
 20
188.4111008672
 30
0.0
 40
2.0
 50
90.0
 51
180.0
  0
LINE
  5
504
  8
0
  6
CONTINUOUS
 62
     7
 10
672.0408173371
 20
190.4110988645
 30
0.0
 11
664.7408219147
 21
190.4110988645
 31
0.0
  0
LINE
  5
505
  8
0
  6
CONTINUOUS
 62
     7
 10
672.0408173371
 20
190.4110988645
 30
0.0
 11
672.0408173371
 21
192.4110969571
 31
0.0
  0
LINE
  5
506
  8
0
  6
CONTINUOUS
 62
     7
 10
672.0408173371
 20
192.4110969571
 30
0.0
 11
672.8408308793
 21
192.4110969571
 31
0.0
  0
LINE
  5
507
  8
0
  6
CONTINUOUS
 62
     7
 10
672.8408308793
 20
192.4110969571
 30
0.0
 11
672.8408308793
 21
242.8451260594
 31
0.0
  0
LINE
  5
508
  8
0
  6
CONTINUOUS
 62
     7
 10
672.8408308793
 20
242.8451260594
 30
0.0
 11
760.6408210564
 21
242.8451260594
 31
0.0
  0
LINE
  5
509
  8
0
  6
CONTINUOUS
 62
     7
 10
760.6408210564
 20
192.4110969571
 30
0.0
 11
760.6408210564
 21
242.8451260594
 31
0.0
  0
LINE
  5
50A
  8
0
  6
CONTINUOUS
 62
     7
 10
761.4408226777
 20
192.4110969571
 30
0.0
 11
760.6408210564
 21
192.4110969571
 31
0.0
  0
LINE
  5
50B
  8
0
  6
CONTINUOUS
 62
     7
 10
761.4408226777
 20
192.4110969571
 30
0.0
 11
761.4408226777
 21
190.4110988645
 31
0.0
  0
LINE
  5
50C
  8
0
  6
CONTINUOUS
 62
     7
 10
768.740830021
 20
190.4110988645
 30
0.0
 11
761.4408226777
 21
190.4110988645
 31
0.0
  0
ARC
  5
50D
  8
0
  6
CONTINUOUS
 62
     7
 10
768.7408266831
 20
188.4111008672
 30
0.0
 40
2.0
 50
0.0
 51
90.0
  0
LINE
  5
50E
  8
0
  6
CONTINUOUS
 62
     7
 10
770.7408281136
 20
184.4111045865
 30
0.0
 11
770.7408281136
 21
188.4111007718
 31
0.0
  0
LINE
  5
50F
  8
0
  6
CONTINUOUS
 62
     7
 10
660.7408257294
 20
182.4111064939
 30
0.0
 11
662.7408238221
 21
182.4111064939
 31
0.0
  0
LINE
  5
510
  8
0
  6
CONTINUOUS
 62
     7
 10
672.8408308793
 20
128.8110991982
 30
0.0
 11
760.6408210564
 21
128.8110991982
 31
0.0
  0
LINE
  5
511
  8
0
  6
CONTINUOUS
 62
     7
 10
672.0408173371
 20
192.4110969571
 30
0.0
 11
672.0408173371
 21
192.4173673657
 31
0.0
  0
LINE
  5
512
  8
0
  6
CONTINUOUS
 62
     7
 10
672.8408308793
 20
243.0746277837
 30
0.0
 11
760.6408210564
 21
243.0746277837
 31
0.0
  0
LINE
  5
513
  8
0
  6
CONTINUOUS
 62
     7
 10
760.6408210564
 20
242.8451260594
 30
0.0
 11
760.6408210564
 21
243.0746277837
 31
0.0
  0
LINE
  5
514
  8
0
  6
CONTINUOUS
 62
     7
 10
672.8408308793
 20
242.8451260594
 30
0.0
 11
672.8408308793
 21
243.0746277837
 31
0.0
  0
LINE
  5
515
  8
0
  6
CONTINUOUS
 62
     7
 10
761.4408226777
 20
194.1931327847
 30
0.0
 11
761.4408226777
 21
192.4110969571
 31
0.0
  0
LINE
  5
516
  8
0
  6
CONTINUOUS
 62
     7
 10
672.9408236314
 20
243.375929263
 30
0.0
 11
672.9408236314
 21
243.0746277837
 31
0.0
  0
LINE
  5
517
  8
0
  6
CONTINUOUS
 62
     7
 10
760.5408283044
 20
243.375929263
 30
0.0
 11
760.5408283044
 21
243.0746277837
 31
0.0
  0
LINE
  5
518
  8
0
  6
CONTINUOUS
 62
     7
 10
672.948429184
 20
243.3835348157
 30
0.0
 11
672.9408236314
 21
243.375929263
 31
0.0
  0
LINE
  5
519
  8
0
  6
CONTINUOUS
 62
     7
 10
760.5408283044
 20
243.375929263
 30
0.0
 11
760.5332108308
 21
243.3835348157
 31
0.0
  0
LINE
  5
51A
  8
0
  6
CONTINUOUS
 62
     7
 10
761.4408226777
 20
194.1961726216
 30
0.0
 11
761.4408226777
 21
194.1931327847
 31
0.0
  0
CIRCLE
  5
51B
  8
0
  6
CONTINUOUS
 62
     7
 10
990.7408266831
 20
185.8111008672
 30
0.0
 40
1.100000000000023
  0
CIRCLE
  5
51C
  8
0
  6
CONTINUOUS
 62
     7
 10
990.7408266831
 20
113.8111008672
 30
0.0
 40
1.100000000000023
  0
CIRCLE
  5
51D
  8
0
  6
CONTINUOUS
 62
     7
 10
890.7408266831
 20
185.8111008672
 30
0.0
 40
1.100000000000023
  0
CIRCLE
  5
51E
  8
0
  6
CONTINUOUS
 62
     7
 10
890.7408266831
 20
113.8111008672
 30
0.0
 40
1.100000000000023
  0
LINE
  5
51F
  8
0
  6
CONTINUOUS
 62
     7
 10
996.74082716
 20
184.4111045865
 30
0.0
 11
994.7408290673
 21
184.4111045865
 31
0.0
  0
LINE
  5
520
  8
0
  6
CONTINUOUS
 62
     7
 10
994.7408290673
 20
182.4111064939
 30
0.0
 11
996.74082716
 21
182.4111064939
 31
0.0
  0
LINE
  5
521
  8
0
  6
CONTINUOUS
 62
     7
 10
994.7408290673
 20
119.2111035851
 30
0.0
 11
994.7408290673
 21
182.4111064939
 31
0.0
  0
LINE
  5
522
  8
0
  6
CONTINUOUS
 62
     7
 10
996.74082716
 20
119.2111035851
 30
0.0
 11
994.7408290673
 21
119.2111035851
 31
0.0
  0
LINE
  5
523
  8
0
  6
CONTINUOUS
 62
     7
 10
994.7408290673
 20
117.211099532
 30
0.0
 11
996.74082716
 21
117.211099532
 31
0.0
  0
LINE
  5
524
  8
0
  6
CONTINUOUS
 62
     7
 10
994.7408290673
 20
112.4111017255
 30
0.0
 11
994.7408290673
 21
117.211099532
 31
0.0
  0
ARC
  5
525
  8
0
  6
CONTINUOUS
 62
     7
 10
992.7408266831
 20
112.4111008672
 30
0.0
 40
2.000000000000014
 50
270.0
 51
0.0
  0
LINE
  5
526
  8
0
  6
CONTINUOUS
 62
     7
 10
985.4408236314
 20
110.4111036328
 30
0.0
 11
992.7408309746
 21
110.4111036328
 31
0.0
  0
LINE
  5
527
  8
0
  6
CONTINUOUS
 62
     7
 10
985.4408236314
 20
110.4111036328
 30
0.0
 11
985.4408236314
 21
108.4110995797
 31
0.0
  0
LINE
  5
528
  8
0
  6
CONTINUOUS
 62
     7
 10
985.4408236314
 20
108.4110995797
 30
0.0
 11
984.6408279706
 21
108.4110995797
 31
0.0
  0
LINE
  5
529
  8
0
  6
CONTINUOUS
 62
     7
 10
984.6408279706
 20
181.2686523465
 30
0.0
 11
984.6408279706
 21
108.4110995797
 31
0.0
  0
LINE
  5
52A
  8
0
  6
CONTINUOUS
 62
     7
 10
896.8408266175
 20
181.2686523465
 30
0.0
 11
984.6408279706
 21
181.2686523465
 31
0.0
  0
LINE
  5
52B
  8
0
  6
CONTINUOUS
 62
     7
 10
896.8408266175
 20
108.4110995797
 30
0.0
 11
896.8408266175
 21
181.2686523465
 31
0.0
  0
LINE
  5
52C
  8
0
  6
CONTINUOUS
 62
     7
 10
896.0408264864
 20
108.4110995797
 30
0.0
 11
896.8408266175
 21
108.4110995797
 31
0.0
  0
LINE
  5
52D
  8
0
  6
CONTINUOUS
 62
     7
 10
896.0408264864
 20
108.4110995797
 30
0.0
 11
896.0408264864
 21
110.4111036328
 31
0.0
  0
LINE
  5
52E
  8
0
  6
CONTINUOUS
 62
     7
 10
888.7408265937
 20
110.4111036328
 30
0.0
 11
896.0408264864
 21
110.4111036328
 31
0.0
  0
ARC
  5
52F
  8
0
  6
CONTINUOUS
 62
     7
 10
888.7408266831
 20
112.4111008672
 30
0.0
 40
2.0
 50
180.0
 51
270.0
  0
LINE
  5
530
  8
0
  6
CONTINUOUS
 62
     7
 10
886.7408266384
 20
117.211099532
 30
0.0
 11
886.7408266384
 21
112.4111017255
 31
0.0
  0
LINE
  5
531
  8
0
  6
CONTINUOUS
 62
     7
 10
884.7408266831
 20
117.211099532
 30
0.0
 11
886.7408266384
 21
117.211099532
 31
0.0
  0
LINE
  5
532
  8
0
  6
CONTINUOUS
 62
     7
 10
886.7408266384
 20
119.2111035851
 30
0.0
 11
884.7408266831
 21
119.2111035851
 31
0.0
  0
LINE
  5
533
  8
0
  6
CONTINUOUS
 62
     7
 10
886.7408266384
 20
182.4111064939
 30
0.0
 11
886.7408266384
 21
119.2111035851
 31
0.0
  0
LINE
  5
534
  8
0
  6
CONTINUOUS
 62
     7
 10
884.7408266831
 20
182.4111064939
 30
0.0
 11
886.7408266384
 21
182.4111064939
 31
0.0
  0
LINE
  5
535
  8
0
  6
CONTINUOUS
 62
     7
 10
886.7408266384
 20
184.4111045865
 30
0.0
 11
884.7408266831
 21
184.4111045865
 31
0.0
  0
LINE
  5
536
  8
0
  6
CONTINUOUS
 62
     7
 10
886.7408266384
 20
188.4111007718
 30
0.0
 11
886.7408266384
 21
184.4111045865
 31
0.0
  0
ARC
  5
537
  8
0
  6
CONTINUOUS
 62
     7
 10
888.7408266831
 20
188.4111008672
 30
0.0
 40
2.0
 50
90.0
 51
180.0
  0
LINE
  5
538
  8
0
  6
CONTINUOUS
 62
     7
 10
896.0408264864
 20
190.4110988645
 30
0.0
 11
888.7408265937
 21
190.4110988645
 31
0.0
  0
LINE
  5
539
  8
0
  6
CONTINUOUS
 62
     7
 10
896.0408264864
 20
190.4110988645
 30
0.0
 11
896.0408264864
 21
192.4110969571
 31
0.0
  0
LINE
  5
53A
  8
0
  6
CONTINUOUS
 62
     7
 10
896.0408264864
 20
192.4110969571
 30
0.0
 11
896.8408266175
 21
192.4110969571
 31
0.0
  0
LINE
  5
53B
  8
0
  6
CONTINUOUS
 62
     7
 10
896.8408266175
 20
192.4110969571
 30
0.0
 11
896.8408266175
 21
242.8451260594
 31
0.0
  0
LINE
  5
53C
  8
0
  6
CONTINUOUS
 62
     7
 10
896.8408266175
 20
242.8451260594
 30
0.0
 11
984.6408279706
 21
242.8451260594
 31
0.0
  0
LINE
  5
53D
  8
0
  6
CONTINUOUS
 62
     7
 10
984.6408279706
 20
192.4110969571
 30
0.0
 11
984.6408279706
 21
242.8451260594
 31
0.0
  0
LINE
  5
53E
  8
0
  6
CONTINUOUS
 62
     7
 10
985.4408236314
 20
192.4110969571
 30
0.0
 11
984.6408279706
 21
192.4110969571
 31
0.0
  0
LINE
  5
53F
  8
0
  6
CONTINUOUS
 62
     7
 10
985.4408236314
 20
192.4110969571
 30
0.0
 11
985.4408236314
 21
190.4110988645
 31
0.0
  0
LINE
  5
540
  8
0
  6
CONTINUOUS
 62
     7
 10
992.7408309746
 20
190.4110988645
 30
0.0
 11
985.4408236314
 21
190.4110988645
 31
0.0
  0
ARC
  5
541
  8
0
  6
CONTINUOUS
 62
     7
 10
992.7408266831
 20
188.4111008672
 30
0.0
 40
2.0
 50
0.0
 51
90.0
  0
LINE
  5
542
  8
0
  6
CONTINUOUS
 62
     7
 10
994.7408290673
 20
184.4111045865
 30
0.0
 11
994.7408290673
 21
188.4111007718
 31
0.0
  0
LINE
  5
543
  8
0
  6
CONTINUOUS
 62
     7
 10
896.8408266175
 20
128.8110991982
 30
0.0
 11
984.6408279706
 21
128.8110991982
 31
0.0
  0
LINE
  5
544
  8
0
  6
CONTINUOUS
 62
     7
 10
896.0408264864
 20
192.4110969571
 30
0.0
 11
896.0408264864
 21
193.1501230268
 31
0.0
  0
LINE
  5
545
  8
0
  6
CONTINUOUS
 62
     7
 10
896.8408266175
 20
243.0746277837
 30
0.0
 11
984.6408279706
 21
243.0746277837
 31
0.0
  0
LINE
  5
546
  8
0
  6
CONTINUOUS
 62
     7
 10
984.6408279706
 20
242.8451260594
 30
0.0
 11
984.6408279706
 21
243.0746277837
 31
0.0
  0
LINE
  5
547
  8
0
  6
CONTINUOUS
 62
     7
 10
896.8408266175
 20
242.8451260594
 30
0.0
 11
896.8408266175
 21
243.0746277837
 31
0.0
  0
LINE
  5
548
  8
0
  6
CONTINUOUS
 62
     7
 10
985.4408236314
 20
194.1931327847
 30
0.0
 11
985.4408236314
 21
192.4110969571
 31
0.0
  0
LINE
  5
549
  8
0
  6
CONTINUOUS
 62
     7
 10
896.9408268202
 20
243.375929263
 30
0.0
 11
896.9408268202
 21
243.0746277837
 31
0.0
  0
LINE
  5
54A
  8
0
  6
CONTINUOUS
 62
     7
 10
984.540829258
 20
243.375929263
 30
0.0
 11
984.540829258
 21
243.0746277837
 31
0.0
  0
LINE
  5
54B
  8
0
  6
CONTINUOUS
 62
     7
 10
896.9484375883
 20
243.3835348157
 30
0.0
 11
896.9408268202
 21
243.375929263
 31
0.0
  0
LINE
  5
54C
  8
0
  6
CONTINUOUS
 62
     7
 10
984.540829258
 20
243.375929263
 30
0.0
 11
984.5332177449
 21
243.3835348157
 31
0.0
  0
LINE
  5
54D
  8
0
  6
CONTINUOUS
 62
     7
 10
985.4408236314
 20
194.1961726216
 30
0.0
 11
985.4408236314
 21
194.1931327847
 31
0.0
  0
ENDSEC
  0
EOF
