  0
SECTION
  2
HEADER
  9
$ACADVER
  1
AC1009
  9
$DWGCODEPAGE
  3
ansi_1252
  9
$INSBASE
 10
0.0
 20
0.0
 30
0.0
  9
$EXTMIN
 10
0.0
 20
0.0
 30
0.0
  9
$EXTMAX
 10
420.0
 20
297.0
 30
0.0
  9
$LIMMIN
 10
0.0
 20
0.0
  9
$LIMMAX
 10
420.0
 20
297.0
  9
$ORTHOMODE
 70
     0
  9
$REGENMODE
 70
     1
  9
$FILLMODE
 70
     1
  9
$QTEXTMODE
 70
     0
  9
$MIRRTEXT
 70
     1
  9
$DRAGMODE
 70
     2
  9
$LTSCALE
 40
1.0
  9
$OSMODE
 70
    37
  9
$ATTMODE
 70
     1
  9
$TEXTSIZE
 40
3.5
  9
$TRACEWID
 40
1.0
  9
$TEXTSTYLE
  7
STANDARD
  9
$CLAYER
  8
0
  9
$CELTYPE
  6
BYLAYER
  9
$CECOLOR
 62
   256
  9
$DIMSCALE
 40
1.0
  9
$DIMASZ
 40
4.0
  9
$DIMEXO
 40
0.0
  9
$DIMDLI
 40
3.75
  9
$DIMRND
 40
0.0
  9
$DIMDLE
 40
0.0
  9
$DIMEXE
 40
2.0
  9
$DIMTP
 40
0.0
  9
$DIMTM
 40
0.0
  9
$DIMTXT
 40
3.5
  9
$DIMCEN
 40
2.5
  9
$DIMTSZ
 40
0.0
  9
$DIMTOL
 70
     0
  9
$DIMLIM
 70
     0
  9
$DIMTIH
 70
     1
  9
$DIMTOH
 70
     1
  9
$DIMSE1
 70
     0
  9
$DIMSE2
 70
     0
  9
$DIMTAD
 70
     1
  9
$DIMZIN
 70
     0
  9
$DIMBLK
  1

  9
$DIMASO
 70
     1
  9
$DIMSHO
 70
     1
  9
$DIMPOST
  1

  9
$DIMAPOST
  1

  9
$DIMALT
 70
     0
  9
$DIMALTD
 70
     3
  9
$DIMALTF
 40
0.0393700787
  9
$DIMLFAC
 40
5.0
  9
$DIMTOFL
 70
     1
  9
$DIMTVP
 40
0.0
  9
$DIMTIX
 70
     0
  9
$DIMSOXD
 70
     0
  9
$DIMSAH
 70
     0
  9
$DIMBLK1
  1

  9
$DIMBLK2
  1

  9
$DIMSTYLE
  2
ISO-25
  9
$DIMCLRD
 70
     0
  9
$DIMCLRE
 70
     0
  9
$DIMCLRT
 70
     0
  9
$DIMTFAC
 40
1.0
  9
$DIMGAP
 40
1.524
  9
$LUNITS
 70
     2
  9
$LUPREC
 70
     2
  9
$SKETCHINC
 40
1.0
  9
$FILLETRAD
 40
10.0
  9
$AUNITS
 70
     0
  9
$AUPREC
 70
     2
  9
$MENU
  1
.
  9
$ELEVATION
 40
0.0
  9
$PELEVATION
 40
0.0
  9
$THICKNESS
 40
0.0
  9
$LIMCHECK
 70
     0
  9
$CHAMFERA
 40
10.0
  9
$CHAMFERB
 40
10.0
  9
$SKPOLY
 70
     0
  9
$TDCREATE
 40
2457801.359463218
  9
$TDUPDATE
 40
2457801.359463345
  9
$TDINDWG
 40
0.0000000116
  9
$TDUSRTIMER
 40
0.0000000116
  9
$USRTIMER
 70
     1
  9
$ANGBASE
 50
0.0
  9
$ANGDIR
 70
     0
  9
$PDMODE
 70
     0
  9
$PDSIZE
 40
-1.0
  9
$PLINEWID
 40
0.0
  9
$COORDS
 70
     1
  9
$SPLFRAME
 70
     0
  9
$SPLINETYPE
 70
     6
  9
$SPLINESEGS
 70
     8
  9
$ATTDIA
 70
     0
  9
$ATTREQ
 70
     1
  9
$HANDLING
 70
     1
  9
$HANDSEED
  5
121
  9
$SURFTAB1
 70
     6
  9
$SURFTAB2
 70
     6
  9
$SURFTYPE
 70
     6
  9
$SURFU
 70
     6
  9
$SURFV
 70
     6
  9
$UCSNAME
  2

  9
$UCSORG
 10
0.0
 20
0.0
 30
0.0
  9
$UCSXDIR
 10
1.0
 20
0.0
 30
0.0
  9
$UCSYDIR
 10
0.0
 20
1.0
 30
0.0
  9
$PUCSNAME
  2

  9
$PUCSORG
 10
0.0
 20
0.0
 30
0.0
  9
$PUCSXDIR
 10
1.0
 20
0.0
 30
0.0
  9
$PUCSYDIR
 10
0.0
 20
1.0
 30
0.0
  9
$USERI1
 70
     0
  9
$USERI2
 70
     0
  9
$USERI3
 70
     0
  9
$USERI4
 70
     0
  9
$USERI5
 70
     0
  9
$USERR1
 40
0.0
  9
$USERR2
 40
0.0
  9
$USERR3
 40
0.0
  9
$USERR4
 40
0.0
  9
$USERR5
 40
0.0
  9
$WORLDVIEW
 70
     1
  9
$SHADEDGE
 70
     3
  9
$SHADEDIF
 70
    70
  9
$TILEMODE
 70
     1
  9
$MAXACTVP
 70
    64
  9
$PLIMCHECK
 70
     0
  9
$PEXTMIN
 10
1.0000000000E+20
 20
1.0000000000E+20
 30
1.0000000000E+20
  9
$PEXTMAX
 10
-1.0000000000E+20
 20
-1.0000000000E+20
 30
-1.0000000000E+20
  9
$PLIMMIN
 10
0.0
 20
0.0
  9
$PLIMMAX
 10
420.0
 20
297.0
  9
$UNITMODE
 70
     0
  9
$VISRETAIN
 70
     1
  9
$PLINEGEN
 70
     0
  9
$PSLTSCALE
 70
     1
  0
ENDSEC
  0
SECTION
  2
TABLES
  0
TABLE
  2
VPORT
 70
     1
  0
VPORT
  2
*ACTIVE
 70
     0
 10
0.0
 20
0.0
 11
1.0
 21
1.0
 12
210.0
 22
148.5
 13
0.0
 23
0.0
 14
10.0
 24
10.0
 15
10.0
 25
10.0
 16
0.0
 26
0.0
 36
1.0
 17
0.0
 27
0.0
 37
0.0
 40
297.0
 41
1.4141414141
 42
50.0
 43
0.0
 44
0.0
 50
0.0
 51
0.0
 71
     0
 72
  2000
 73
     1
 74
     3
 75
     0
 76
     0
 77
     0
 78
     0
  0
ENDTAB
  0
TABLE
  2
LTYPE
 70
     6
  0
LTYPE
  2
CONTINUOUS
 70
     0
  3
Solid line
 72
    65
 73
     0
 40
0.0
  0
LTYPE
  2
HIDDEN
 70
     0
  3
Hidden __ __ __ __ __ __ __ __ __ __ __ __ __ __
 72
    65
 73
     2
 40
1.905
 49
1.27
 49
-0.635
  0
LTYPE
  2
PHANTOM
 70
     0
  3
Phantom ______  __  __  ______  __  __  ______
 72
    65
 73
     6
 40
12.7
 49
6.35
 49
-1.27
 49
1.27
 49
-1.27
 49
1.27
 49
-1.27
  0
LTYPE
  2
CENTER
 70
     0
  3
Center ____ _ ____ _ ____ _ ____ _ ____ _ ____
 72
    65
 73
     4
 40
10.16
 49
6.35
 49
-1.27
 49
1.27
 49
-1.27
  0
LTYPE
  2
CENTERX2
 70
     0
  3
Center (2x) ________  __  ________  __  _____
 72
    65
 73
     4
 40
20.32
 49
12.7
 49
-2.54
 49
2.54
 49
-2.54
  0
LTYPE
  2
DOT2
 70
     0
  3
Dot (.5x) ........................................
 72
    65
 73
     2
 40
0.635
 49
0.0
 49
-0.635
  0
ENDTAB
  0
TABLE
  2
LAYER
 70
     2
  0
LAYER
  2
0
 70
     0
 62
     7
  6
CONTINUOUS
  0
LAYER
  2
FORMAT
 70
     0
 62
     7
  6
CONTINUOUS
  0
ENDTAB
  0
TABLE
  2
STYLE
 70
     1
  0
STYLE
  2
STANDARD
 70
     0
 40
0.0
 41
1.0
 50
0.0
 71
     0
 42
3.5
  3
txt
  4

  0
ENDTAB
  0
TABLE
  2
VIEW
 70
     0
  0
ENDTAB
  0
TABLE
  2
UCS
 70
     0
  0
ENDTAB
  0
TABLE
  2
APPID
 70
     1
  0
APPID
  2
ACAD
 70
     0
  0
ENDTAB
  0
TABLE
  2
DIMSTYLE
 70
     1
  0
DIMSTYLE
  2
ISO-25
 70
     0
  3

  4

  5

  6

  7

 40
1.0
 41
2.5
 42
0.625
 43
3.75
 44
1.25
 45
0.0
 46
0.0
 47
0.0
 48
0.0
140
2.5
141
2.5
142
0.0
143
0.0393700787
144
1.0
145
0.0
146
1.0
147
0.625
 71
     0
 72
     0
 73
     0
 74
     0
 75
     0
 76
     0
 77
     1
 78
     8
170
     0
171
     3
172
     1
173
     0
174
     0
175
     0
176
     0
177
     0
178
     0
  0
ENDTAB
  0
ENDSEC
  0
SECTION
  2
BLOCKS
  0
BLOCK
  8
0
  2
$MODEL_SPACE
 70
     0
 10
0.0
 20
0.0
 30
0.0
  3
$MODEL_SPACE
  1

  0
ENDBLK
  5
21
  8
0
  0
BLOCK
 67
     1
  8
0
  2
$PAPER_SPACE
 70
     0
 10
0.0
 20
0.0
 30
0.0
  3
$PAPER_SPACE
  1

  0
ENDBLK
  5
1D
 67
     1
  8
0
  0
ENDSEC
  0
SECTION
  2
ENTITIES
  0
LINE
  5
45
  8
0
  6
CONTINUOUS
 62
     7
 10
414.85
 20
5.15
 30
0.0
 11
5.15
 21
5.15
 31
0.0
  0
LINE
  5
46
  8
0
  6
CONTINUOUS
 62
     7
 10
415.0
 20
5.0
 30
0.0
 11
415.0
 21
277.0
 31
0.0
  0
LINE
  5
47
  8
0
  6
CONTINUOUS
 62
     7
 10
415.0
 20
277.0
 30
0.0
 11
5.0
 21
277.0
 31
0.0
  0
LINE
  5
48
  8
0
  6
CONTINUOUS
 62
     7
 10
5.15
 20
276.85
 30
0.0
 11
5.15
 21
5.15
 31
0.0
  0
LINE
  5
49
  8
0
  6
CONTINUOUS
 62
     7
 10
53.1749371921
 20
260.5209285714
 30
0.0
 11
165.3749371921
 21
260.5209285714
 31
0.0
  0
LINE
  5
4A
  8
0
  6
CONTINUOUS
 62
     7
 10
165.3749371921
 20
260.5209285714
 30
0.0
 11
164.9749371921
 21
260.1209285714
 31
0.0
  0
LINE
  5
4B
  8
0
  6
CONTINUOUS
 62
     7
 10
53.1749371921
 20
260.5209285714
 30
0.0
 11
53.5749371921
 21
260.1209285714
 31
0.0
  0
LINE
  5
4C
  8
0
  6
CONTINUOUS
 62
     7
 10
53.1749371921
 20
149.7209285714
 30
0.0
 11
53.1749371921
 21
260.5209285714
 31
0.0
  0
LINE
  5
4D
  8
0
  6
CONTINUOUS
 62
     7
 10
53.5749371921
 20
150.1209285714
 30
0.0
 11
53.1749371921
 21
149.7209285714
 31
0.0
  0
LINE
  5
4E
  8
0
  6
CONTINUOUS
 62
     7
 10
164.9749371921
 20
150.1209285714
 30
0.0
 11
165.3749371921
 21
149.7209285714
 31
0.0
  0
LINE
  5
4F
  8
0
  6
CONTINUOUS
 62
     7
 10
165.3749371921
 20
149.7209285714
 30
0.0
 11
53.1749371921
 21
149.7209285714
 31
0.0
  0
LINE
  5
50
  8
0
  6
CONTINUOUS
 62
     7
 10
141.0249371921
 20
254.7709285714
 30
0.0
 11
141.0249371921
 21
252.2709285714
 31
0.0
  0
LINE
  5
51
  8
0
  6
CONTINUOUS
 62
     7
 10
141.0249371921
 20
252.2709285714
 30
0.0
 11
143.5249371921
 21
252.2709285714
 31
0.0
  0
LINE
  5
52
  8
0
  6
CONTINUOUS
 62
     7
 10
143.5249371921
 20
252.2709285714
 30
0.0
 11
143.5249371921
 21
254.7709285714
 31
0.0
  0
LINE
  5
53
  8
0
  6
CONTINUOUS
 62
     7
 10
143.5249371921
 20
254.7709285714
 30
0.0
 11
141.0249371921
 21
254.7709285714
 31
0.0
  0
LINE
  5
54
  8
0
  6
CONTINUOUS
 62
     7
 10
157.0249371921
 20
238.7709285714
 30
0.0
 11
157.0249371921
 21
236.2709285714
 31
0.0
  0
LINE
  5
55
  8
0
  6
CONTINUOUS
 62
     7
 10
157.0249371921
 20
236.2709285714
 30
0.0
 11
159.5249371921
 21
236.2709285714
 31
0.0
  0
LINE
  5
56
  8
0
  6
CONTINUOUS
 62
     7
 10
159.5249371921
 20
236.2709285714
 30
0.0
 11
159.5249371921
 21
238.7709285714
 31
0.0
  0
LINE
  5
57
  8
0
  6
CONTINUOUS
 62
     7
 10
159.5249371921
 20
238.7709285714
 30
0.0
 11
157.0249371921
 21
238.7709285714
 31
0.0
  0
LINE
  5
58
  8
0
  6
CONTINUOUS
 62
     7
 10
143.5249371921
 20
157.9709285714
 30
0.0
 11
141.0249371921
 21
157.9709285714
 31
0.0
  0
LINE
  5
59
  8
0
  6
CONTINUOUS
 62
     7
 10
141.0249371921
 20
157.9709285714
 30
0.0
 11
141.0249371921
 21
155.4709285714
 31
0.0
  0
LINE
  5
5A
  8
0
  6
CONTINUOUS
 62
     7
 10
141.0249371921
 20
155.4709285714
 30
0.0
 11
143.5249371921
 21
155.4709285714
 31
0.0
  0
LINE
  5
5B
  8
0
  6
CONTINUOUS
 62
     7
 10
143.5249371921
 20
155.4709285714
 30
0.0
 11
143.5249371921
 21
157.9709285714
 31
0.0
  0
LINE
  5
5C
  8
0
  6
CONTINUOUS
 62
     7
 10
157.0249371921
 20
171.4709285714
 30
0.0
 11
159.5249371921
 21
171.4709285714
 31
0.0
  0
LINE
  5
5D
  8
0
  6
CONTINUOUS
 62
     7
 10
159.5249371921
 20
171.4709285714
 30
0.0
 11
159.5249371921
 21
173.9709285714
 31
0.0
  0
LINE
  5
5E
  8
0
  6
CONTINUOUS
 62
     7
 10
159.5249371921
 20
173.9709285714
 30
0.0
 11
157.0249371921
 21
173.9709285714
 31
0.0
  0
LINE
  5
5F
  8
0
  6
CONTINUOUS
 62
     7
 10
157.0249371921
 20
173.9709285714
 30
0.0
 11
157.0249371921
 21
171.4709285714
 31
0.0
  0
LINE
  5
60
  8
0
  6
CONTINUOUS
 62
     7
 10
75.0249371921
 20
157.9709285714
 30
0.0
 11
75.0249371921
 21
155.4709285714
 31
0.0
  0
LINE
  5
61
  8
0
  6
CONTINUOUS
 62
     7
 10
75.0249371921
 20
155.4709285714
 30
0.0
 11
77.5249371921
 21
155.4709285714
 31
0.0
  0
LINE
  5
62
  8
0
  6
CONTINUOUS
 62
     7
 10
77.5249371921
 20
155.4709285714
 30
0.0
 11
77.5249371921
 21
157.9709285714
 31
0.0
  0
LINE
  5
63
  8
0
  6
CONTINUOUS
 62
     7
 10
77.5249371921
 20
157.9709285714
 30
0.0
 11
75.0249371921
 21
157.9709285714
 31
0.0
  0
LINE
  5
64
  8
0
  6
CONTINUOUS
 62
     7
 10
59.0249371921
 20
173.9709285714
 30
0.0
 11
59.0249371921
 21
171.4709285714
 31
0.0
  0
LINE
  5
65
  8
0
  6
CONTINUOUS
 62
     7
 10
59.0249371921
 20
171.4709285714
 30
0.0
 11
61.5249371921
 21
171.4709285714
 31
0.0
  0
LINE
  5
66
  8
0
  6
CONTINUOUS
 62
     7
 10
61.5249371921
 20
171.4709285714
 30
0.0
 11
61.5249371921
 21
173.9709285714
 31
0.0
  0
LINE
  5
67
  8
0
  6
CONTINUOUS
 62
     7
 10
61.5249371921
 20
173.9709285714
 30
0.0
 11
59.0249371921
 21
173.9709285714
 31
0.0
  0
LINE
  5
68
  8
0
  6
CONTINUOUS
 62
     7
 10
61.5249371921
 20
236.2709285714
 30
0.0
 11
61.5249371921
 21
238.7709285714
 31
0.0
  0
LINE
  5
69
  8
0
  6
CONTINUOUS
 62
     7
 10
61.5249371921
 20
238.7709285714
 30
0.0
 11
59.0249371921
 21
238.7709285714
 31
0.0
  0
LINE
  5
6A
  8
0
  6
CONTINUOUS
 62
     7
 10
59.0249371921
 20
238.7709285714
 30
0.0
 11
59.0249371921
 21
236.2709285714
 31
0.0
  0
LINE
  5
6B
  8
0
  6
CONTINUOUS
 62
     7
 10
59.0249371921
 20
236.2709285714
 30
0.0
 11
61.5249371921
 21
236.2709285714
 31
0.0
  0
LINE
  5
6C
  8
0
  6
CONTINUOUS
 62
     7
 10
77.5249371921
 20
252.2709285714
 30
0.0
 11
77.5249371921
 21
254.7709285714
 31
0.0
  0
LINE
  5
6D
  8
0
  6
CONTINUOUS
 62
     7
 10
77.5249371921
 20
254.7709285714
 30
0.0
 11
75.0249371921
 21
254.7709285714
 31
0.0
  0
LINE
  5
6E
  8
0
  6
CONTINUOUS
 62
     7
 10
75.0249371921
 20
254.7709285714
 30
0.0
 11
75.0249371921
 21
252.2709285714
 31
0.0
  0
LINE
  5
6F
  8
0
  6
CONTINUOUS
 62
     7
 10
75.0249371921
 20
252.2709285714
 30
0.0
 11
77.5249371921
 21
252.2709285714
 31
0.0
  0
LINE
  5
70
  8
0
  6
CONTINUOUS
 62
     7
 10
109.6749371921
 20
159.7209285714
 30
0.0
 11
153.2749371921
 21
159.7209285714
 31
0.0
  0
ARC
  5
71
  8
0
  6
CONTINUOUS
 62
     7
 10
153.2749371921
 20
161.7209285714
 30
0.0
 40
2.0
 50
270.0
 51
0.0
  0
LINE
  5
72
  8
0
  6
CONTINUOUS
 62
     7
 10
155.2749371921
 20
161.7209285714
 30
0.0
 11
155.2749371921
 21
248.5209285714
 31
0.0
  0
ARC
  5
73
  8
0
  6
CONTINUOUS
 62
     7
 10
153.2749371921
 20
248.5209285714
 30
0.0
 40
2.000000000000028
 50
0.0
 51
90.0
  0
LINE
  5
74
  8
0
  6
CONTINUOUS
 62
     7
 10
153.2749371921
 20
250.5209285714
 30
0.0
 11
109.6749371921
 21
250.5209285714
 31
0.0
  0
ARC
  5
75
  8
0
  6
CONTINUOUS
 62
     7
 10
109.2749371921
 20
250.5209285714
 30
0.0
 40
0.4000000000000057
 50
0.0
 51
180.0
  0
LINE
  5
76
  8
0
  6
CONTINUOUS
 62
     7
 10
108.8749371921
 20
250.5209285714
 30
0.0
 11
65.2749371921
 21
250.5209285714
 31
0.0
  0
ARC
  5
77
  8
0
  6
CONTINUOUS
 62
     7
 10
65.2749371921
 20
248.5209285714
 30
0.0
 40
2.000000000000028
 50
90.0
 51
180.0
  0
LINE
  5
78
  8
0
  6
CONTINUOUS
 62
     7
 10
63.2749371921
 20
248.5209285714
 30
0.0
 11
63.2749371921
 21
161.7209285714
 31
0.0
  0
ARC
  5
79
  8
0
  6
CONTINUOUS
 62
     7
 10
65.2749371921
 20
161.7209285714
 30
0.0
 40
2.0
 50
180.0
 51
270.0
  0
LINE
  5
7A
  8
0
  6
CONTINUOUS
 62
     7
 10
65.2749371921
 20
159.7209285714
 30
0.0
 11
108.8749371921
 21
159.7209285714
 31
0.0
  0
ARC
  5
7B
  8
0
  6
CONTINUOUS
 62
     7
 10
109.2749371921
 20
159.7209285714
 30
0.0
 40
0.4000000000000057
 50
180.0
 51
0.0
  0
LINE
  5
7C
  8
0
  6
CONTINUOUS
 62
     7
 10
165.3749371921
 20
260.5209285714
 30
0.0
 11
165.3749371921
 21
149.7209285714
 31
0.0
  0
LINE
  5
7D
  8
0
  6
HIDDEN
 62
     7
 10
165.0749371921
 20
150.0209285714
 30
0.0
 11
53.4749371921
 21
150.0209285714
 31
0.0
  0
LINE
  5
7E
  8
0
  6
HIDDEN
 62
     7
 10
53.4749371921
 20
260.2209285714
 30
0.0
 11
165.0749371921
 21
260.2209285714
 31
0.0
  0
LINE
  5
7F
  8
0
  6
HIDDEN
 62
     7
 10
53.4749371921
 20
150.0209285714
 30
0.0
 11
53.4749371921
 21
260.2209285714
 31
0.0
  0
LINE
  5
80
  8
0
  6
HIDDEN
 62
     7
 10
165.0749371921
 20
260.2209285714
 30
0.0
 11
165.0749371921
 21
150.0209285714
 31
0.0
  0
ARC
  5
81
  8
0
  6
HIDDEN
 62
     7
 10
71.3749371921
 20
256.1209285714
 30
0.0
 40
0.8000000000000114
 50
180.0
 51
270.0
  0
LINE
  5
82
  8
0
  6
HIDDEN
 62
     7
 10
70.5749371921
 20
256.1209285714
 30
0.0
 11
70.5749371921
 21
257.3209285714
 31
0.0
  0
ARC
  5
83
  8
0
  6
HIDDEN
 62
     7
 10
69.7749371921
 20
257.3209285714
 30
0.0
 40
0.8000000000000114
 50
0.0
 51
90.0
  0
LINE
  5
84
  8
0
  6
HIDDEN
 62
     7
 10
69.7749371921
 20
258.1209285714
 30
0.0
 11
55.5749371921
 21
258.1209285714
 31
0.0
  0
LINE
  5
85
  8
0
  6
HIDDEN
 62
     7
 10
55.5749371921
 20
258.1209285714
 30
0.0
 11
55.5749371921
 21
243.9209285714
 31
0.0
  0
ARC
  5
86
  8
0
  6
HIDDEN
 62
     7
 10
56.3749371921
 20
243.9209285714
 30
0.0
 40
0.8000000000000114
 50
180.0
 51
270.0
  0
LINE
  5
87
  8
0
  6
HIDDEN
 62
     7
 10
56.3749371921
 20
243.1209285714
 30
0.0
 11
57.5749371921
 21
243.1209285714
 31
0.0
  0
ARC
  5
88
  8
0
  6
HIDDEN
 62
     7
 10
57.5749371921
 20
242.3209285714
 30
0.0
 40
0.79999999999999
 50
0.0
 51
90.0
  0
LINE
  5
89
  8
0
  6
HIDDEN
 62
     7
 10
58.3749371921
 20
242.3209285714
 30
0.0
 11
58.3749371921
 21
167.9209285714
 31
0.0
  0
ARC
  5
8A
  8
0
  6
HIDDEN
 62
     7
 10
57.5749371921
 20
167.9209285714
 30
0.0
 40
0.79999999999999
 50
270.0
 51
0.0
  0
LINE
  5
8B
  8
0
  6
HIDDEN
 62
     7
 10
57.5749371921
 20
167.1209285714
 30
0.0
 11
56.3749371921
 21
167.1209285714
 31
0.0
  0
ARC
  5
8C
  8
0
  6
HIDDEN
 62
     7
 10
56.3749371921
 20
166.3209285714
 30
0.0
 40
0.8000000000000114
 50
90.0
 51
180.0
  0
LINE
  5
8D
  8
0
  6
HIDDEN
 62
     7
 10
55.5749371921
 20
166.3209285714
 30
0.0
 11
55.5749371921
 21
152.1209285714
 31
0.0
  0
LINE
  5
8E
  8
0
  6
HIDDEN
 62
     7
 10
55.5749371921
 20
152.1209285714
 30
0.0
 11
69.7749371921
 21
152.1209285714
 31
0.0
  0
ARC
  5
8F
  8
0
  6
HIDDEN
 62
     7
 10
69.7749371921
 20
152.9209285714
 30
0.0
 40
0.8000000000000398
 50
270.0
 51
0.0
  0
LINE
  5
90
  8
0
  6
HIDDEN
 62
     7
 10
70.5749371921
 20
152.9209285714
 30
0.0
 11
70.5749371921
 21
154.1209285714
 31
0.0
  0
ARC
  5
91
  8
0
  6
HIDDEN
 62
     7
 10
71.3749371921
 20
154.1209285714
 30
0.0
 40
0.8000000000000114
 50
90.0
 51
180.0
  0
LINE
  5
92
  8
0
  6
HIDDEN
 62
     7
 10
71.3749371921
 20
154.9209285714
 30
0.0
 11
147.1749371921
 21
154.9209285714
 31
0.0
  0
ARC
  5
93
  8
0
  6
HIDDEN
 62
     7
 10
147.1749371921
 20
154.1209285714
 30
0.0
 40
0.8000000000000114
 50
0.0
 51
90.0
  0
LINE
  5
94
  8
0
  6
HIDDEN
 62
     7
 10
147.9749371921
 20
154.1209285714
 30
0.0
 11
147.9749371921
 21
152.9209285714
 31
0.0
  0
ARC
  5
95
  8
0
  6
HIDDEN
 62
     7
 10
148.7749371921
 20
152.9209285714
 30
0.0
 40
0.8000000000000398
 50
180.0
 51
270.0
  0
LINE
  5
96
  8
0
  6
HIDDEN
 62
     7
 10
148.7749371921
 20
152.1209285714
 30
0.0
 11
162.9749371921
 21
152.1209285714
 31
0.0
  0
LINE
  5
97
  8
0
  6
HIDDEN
 62
     7
 10
162.9749371921
 20
152.1209285714
 30
0.0
 11
162.9749371921
 21
166.3209285714
 31
0.0
  0
ARC
  5
98
  8
0
  6
HIDDEN
 62
     7
 10
162.1749371921
 20
166.3209285714
 30
0.0
 40
0.8000000000000114
 50
0.0
 51
90.0
  0
LINE
  5
99
  8
0
  6
HIDDEN
 62
     7
 10
162.1749371921
 20
167.1209285714
 30
0.0
 11
160.9749371921
 21
167.1209285714
 31
0.0
  0
ARC
  5
9A
  8
0
  6
HIDDEN
 62
     7
 10
160.9749371921
 20
167.9209285714
 30
0.0
 40
0.8000000000000114
 50
180.0
 51
270.0
  0
LINE
  5
9B
  8
0
  6
HIDDEN
 62
     7
 10
160.1749371921
 20
167.9209285714
 30
0.0
 11
160.1749371921
 21
242.3209285714
 31
0.0
  0
ARC
  5
9C
  8
0
  6
HIDDEN
 62
     7
 10
160.9749371921
 20
242.3209285714
 30
0.0
 40
0.8000000000000114
 50
90.0
 51
180.0
  0
LINE
  5
9D
  8
0
  6
HIDDEN
 62
     7
 10
160.9749371921
 20
243.1209285714
 30
0.0
 11
162.1749371921
 21
243.1209285714
 31
0.0
  0
ARC
  5
9E
  8
0
  6
HIDDEN
 62
     7
 10
162.1749371921
 20
243.9209285714
 30
0.0
 40
0.8000000000000398
 50
270.0
 51
0.0
  0
LINE
  5
9F
  8
0
  6
HIDDEN
 62
     7
 10
162.9749371921
 20
243.9209285714
 30
0.0
 11
162.9749371921
 21
258.1209285714
 31
0.0
  0
LINE
  5
A0
  8
0
  6
HIDDEN
 62
     7
 10
162.9749371921
 20
258.1209285714
 30
0.0
 11
148.7749371921
 21
258.1209285714
 31
0.0
  0
ARC
  5
A1
  8
0
  6
HIDDEN
 62
     7
 10
148.7749371921
 20
257.3209285714
 30
0.0
 40
0.8000000000000398
 50
90.0
 51
180.0
  0
LINE
  5
A2
  8
0
  6
HIDDEN
 62
     7
 10
147.9749371921
 20
257.3209285714
 30
0.0
 11
147.9749371921
 21
256.1209285714
 31
0.0
  0
ARC
  5
A3
  8
0
  6
HIDDEN
 62
     7
 10
147.1749371921
 20
256.1209285714
 30
0.0
 40
0.8000000000000114
 50
270.0
 51
0.0
  0
LINE
  5
A4
  8
0
  6
HIDDEN
 62
     7
 10
147.1749371921
 20
255.3209285714
 30
0.0
 11
71.3749371921
 21
255.3209285714
 31
0.0
  0
LINE
  5
A5
  8
0
  6
HIDDEN
 62
     7
 10
77.1249371921
 20
257.0709285714
 30
0.0
 11
77.1249371921
 21
258.7709285714
 31
0.0
  0
LINE
  5
A6
  8
0
  6
HIDDEN
 62
     7
 10
77.1249371921
 20
258.7709285714
 30
0.0
 11
75.4249371921
 21
258.7709285714
 31
0.0
  0
LINE
  5
A7
  8
0
  6
HIDDEN
 62
     7
 10
75.4249371921
 20
258.7709285714
 30
0.0
 11
75.4249371921
 21
257.0709285714
 31
0.0
  0
LINE
  5
A8
  8
0
  6
HIDDEN
 62
     7
 10
75.4249371921
 20
257.0709285714
 30
0.0
 11
77.1249371921
 21
257.0709285714
 31
0.0
  0
LINE
  5
A9
  8
0
  6
HIDDEN
 62
     7
 10
56.5249371921
 20
237.2709285714
 30
0.0
 11
56.5249371921
 21
238.9709285714
 31
0.0
  0
LINE
  5
AA
  8
0
  6
HIDDEN
 62
     7
 10
56.5249371921
 20
238.9709285714
 30
0.0
 11
54.8249371921
 21
238.9709285714
 31
0.0
  0
LINE
  5
AB
  8
0
  6
HIDDEN
 62
     7
 10
54.8249371921
 20
238.9709285714
 30
0.0
 11
54.8249371921
 21
237.2709285714
 31
0.0
  0
LINE
  5
AC
  8
0
  6
HIDDEN
 62
     7
 10
54.8249371921
 20
237.2709285714
 30
0.0
 11
56.5249371921
 21
237.2709285714
 31
0.0
  0
LINE
  5
AD
  8
0
  6
HIDDEN
 62
     7
 10
56.5249371921
 20
204.2709285714
 30
0.0
 11
56.5249371921
 21
205.9709285714
 31
0.0
  0
LINE
  5
AE
  8
0
  6
HIDDEN
 62
     7
 10
56.5249371921
 20
205.9709285714
 30
0.0
 11
54.8249371921
 21
205.9709285714
 31
0.0
  0
LINE
  5
AF
  8
0
  6
HIDDEN
 62
     7
 10
54.8249371921
 20
205.9709285714
 30
0.0
 11
54.8249371921
 21
204.2709285714
 31
0.0
  0
LINE
  5
B0
  8
0
  6
HIDDEN
 62
     7
 10
54.8249371921
 20
204.2709285714
 30
0.0
 11
56.5249371921
 21
204.2709285714
 31
0.0
  0
LINE
  5
B1
  8
0
  6
HIDDEN
 62
     7
 10
110.1249371921
 20
257.0709285714
 30
0.0
 11
110.1249371921
 21
258.7709285714
 31
0.0
  0
LINE
  5
B2
  8
0
  6
HIDDEN
 62
     7
 10
110.1249371921
 20
258.7709285714
 30
0.0
 11
108.4249371921
 21
258.7709285714
 31
0.0
  0
LINE
  5
B3
  8
0
  6
HIDDEN
 62
     7
 10
108.4249371921
 20
258.7709285714
 30
0.0
 11
108.4249371921
 21
257.0709285714
 31
0.0
  0
LINE
  5
B4
  8
0
  6
HIDDEN
 62
     7
 10
108.4249371921
 20
257.0709285714
 30
0.0
 11
110.1249371921
 21
257.0709285714
 31
0.0
  0
LINE
  5
B5
  8
0
  6
HIDDEN
 62
     7
 10
110.1249371921
 20
151.4709285714
 30
0.0
 11
110.1249371921
 21
153.1709285714
 31
0.0
  0
LINE
  5
B6
  8
0
  6
HIDDEN
 62
     7
 10
110.1249371921
 20
153.1709285714
 30
0.0
 11
108.4249371921
 21
153.1709285714
 31
0.0
  0
LINE
  5
B7
  8
0
  6
HIDDEN
 62
     7
 10
108.4249371921
 20
153.1709285714
 30
0.0
 11
108.4249371921
 21
151.4709285714
 31
0.0
  0
LINE
  5
B8
  8
0
  6
HIDDEN
 62
     7
 10
108.4249371921
 20
151.4709285714
 30
0.0
 11
110.1249371921
 21
151.4709285714
 31
0.0
  0
LINE
  5
B9
  8
0
  6
HIDDEN
 62
     7
 10
56.5249371921
 20
171.2709285714
 30
0.0
 11
56.5249371921
 21
172.9709285714
 31
0.0
  0
LINE
  5
BA
  8
0
  6
HIDDEN
 62
     7
 10
56.5249371921
 20
172.9709285714
 30
0.0
 11
54.8249371921
 21
172.9709285714
 31
0.0
  0
LINE
  5
BB
  8
0
  6
HIDDEN
 62
     7
 10
54.8249371921
 20
172.9709285714
 30
0.0
 11
54.8249371921
 21
171.2709285714
 31
0.0
  0
LINE
  5
BC
  8
0
  6
HIDDEN
 62
     7
 10
54.8249371921
 20
171.2709285714
 30
0.0
 11
56.5249371921
 21
171.2709285714
 31
0.0
  0
LINE
  5
BD
  8
0
  6
HIDDEN
 62
     7
 10
77.1249371921
 20
151.4709285714
 30
0.0
 11
77.1249371921
 21
153.1709285714
 31
0.0
  0
LINE
  5
BE
  8
0
  6
HIDDEN
 62
     7
 10
77.1249371921
 20
153.1709285714
 30
0.0
 11
75.4249371921
 21
153.1709285714
 31
0.0
  0
LINE
  5
BF
  8
0
  6
HIDDEN
 62
     7
 10
75.4249371921
 20
153.1709285714
 30
0.0
 11
75.4249371921
 21
151.4709285714
 31
0.0
  0
LINE
  5
C0
  8
0
  6
HIDDEN
 62
     7
 10
75.4249371921
 20
151.4709285714
 30
0.0
 11
77.1249371921
 21
151.4709285714
 31
0.0
  0
LINE
  5
C1
  8
0
  6
HIDDEN
 62
     7
 10
162.0249371921
 20
205.9709285714
 30
0.0
 11
162.0249371921
 21
204.2709285714
 31
0.0
  0
LINE
  5
C2
  8
0
  6
HIDDEN
 62
     7
 10
162.0249371921
 20
204.2709285714
 30
0.0
 11
163.7249371921
 21
204.2709285714
 31
0.0
  0
LINE
  5
C3
  8
0
  6
HIDDEN
 62
     7
 10
163.7249371921
 20
204.2709285714
 30
0.0
 11
163.7249371921
 21
205.9709285714
 31
0.0
  0
LINE
  5
C4
  8
0
  6
HIDDEN
 62
     7
 10
163.7249371921
 20
205.9709285714
 30
0.0
 11
162.0249371921
 21
205.9709285714
 31
0.0
  0
LINE
  5
C5
  8
0
  6
HIDDEN
 62
     7
 10
143.1249371921
 20
151.4709285714
 30
0.0
 11
143.1249371921
 21
153.1709285714
 31
0.0
  0
LINE
  5
C6
  8
0
  6
HIDDEN
 62
     7
 10
143.1249371921
 20
153.1709285714
 30
0.0
 11
141.4249371921
 21
153.1709285714
 31
0.0
  0
LINE
  5
C7
  8
0
  6
HIDDEN
 62
     7
 10
141.4249371921
 20
153.1709285714
 30
0.0
 11
141.4249371921
 21
151.4709285714
 31
0.0
  0
LINE
  5
C8
  8
0
  6
HIDDEN
 62
     7
 10
141.4249371921
 20
151.4709285714
 30
0.0
 11
143.1249371921
 21
151.4709285714
 31
0.0
  0
LINE
  5
C9
  8
0
  6
HIDDEN
 62
     7
 10
163.7249371921
 20
171.2709285714
 30
0.0
 11
163.7249371921
 21
172.9709285714
 31
0.0
  0
LINE
  5
CA
  8
0
  6
HIDDEN
 62
     7
 10
163.7249371921
 20
172.9709285714
 30
0.0
 11
162.0249371921
 21
172.9709285714
 31
0.0
  0
LINE
  5
CB
  8
0
  6
HIDDEN
 62
     7
 10
162.0249371921
 20
172.9709285714
 30
0.0
 11
162.0249371921
 21
171.2709285714
 31
0.0
  0
LINE
  5
CC
  8
0
  6
HIDDEN
 62
     7
 10
162.0249371921
 20
171.2709285714
 30
0.0
 11
163.7249371921
 21
171.2709285714
 31
0.0
  0
LINE
  5
CD
  8
0
  6
HIDDEN
 62
     7
 10
162.0249371921
 20
238.9709285714
 30
0.0
 11
162.0249371921
 21
237.2709285714
 31
0.0
  0
LINE
  5
CE
  8
0
  6
HIDDEN
 62
     7
 10
162.0249371921
 20
237.2709285714
 30
0.0
 11
163.7249371921
 21
237.2709285714
 31
0.0
  0
LINE
  5
CF
  8
0
  6
HIDDEN
 62
     7
 10
163.7249371921
 20
237.2709285714
 30
0.0
 11
163.7249371921
 21
238.9709285714
 31
0.0
  0
LINE
  5
D0
  8
0
  6
HIDDEN
 62
     7
 10
163.7249371921
 20
238.9709285714
 30
0.0
 11
162.0249371921
 21
238.9709285714
 31
0.0
  0
LINE
  5
D1
  8
0
  6
HIDDEN
 62
     7
 10
141.4249371921
 20
258.7709285714
 30
0.0
 11
141.4249371921
 21
257.0709285714
 31
0.0
  0
LINE
  5
D2
  8
0
  6
HIDDEN
 62
     7
 10
141.4249371921
 20
257.0709285714
 30
0.0
 11
143.1249371921
 21
257.0709285714
 31
0.0
  0
LINE
  5
D3
  8
0
  6
HIDDEN
 62
     7
 10
143.1249371921
 20
257.0709285714
 30
0.0
 11
143.1249371921
 21
258.7709285714
 31
0.0
  0
LINE
  5
D4
  8
0
  6
HIDDEN
 62
     7
 10
143.1249371921
 20
258.7709285714
 30
0.0
 11
141.4249371921
 21
258.7709285714
 31
0.0
  0
LINE
  5
D5
  8
0
  6
CONTINUOUS
 62
     7
 10
234.6166810528
 20
149.7209285714
 30
0.0
 11
234.6166810528
 21
260.5209285714
 31
0.0
  0
LINE
  5
D6
  8
0
  6
CONTINUOUS
 62
     7
 10
234.6166810528
 20
260.5209285714
 30
0.0
 11
250.6166810528
 21
260.5209285714
 31
0.0
  0
LINE
  5
D7
  8
0
  6
CONTINUOUS
 62
     7
 10
234.6166810528
 20
149.7209285714
 30
0.0
 11
250.6166810528
 21
149.7209285714
 31
0.0
  0
ARC
  5
D8
  8
0
  6
CONTINUOUS
 62
     7
 10
250.6166810528
 20
260.1209285714
 30
0.0
 40
0.3999999999999773
 50
360.0
 51
90.0
  0
LINE
  5
D9
  8
0
  6
CONTINUOUS
 62
     7
 10
251.0166810528
 20
260.1209285714
 30
0.0
 11
251.0166810528
 21
150.1209285714
 31
0.0
  0
ARC
  5
DA
  8
0
  6
CONTINUOUS
 62
     7
 10
250.6166810528
 20
150.1209285714
 30
0.0
 40
0.3999999999999488
 50
270.0
 51
0.0
  0
LINE
  5
DB
  8
0
  6
HIDDEN
 62
     7
 10
234.9166810528
 20
150.0209285714
 30
0.0
 11
234.9166810528
 21
260.2209285714
 31
0.0
  0
LINE
  5
DC
  8
0
  6
HIDDEN
 62
     7
 10
234.9166810528
 20
150.0209285714
 30
0.0
 11
250.7166810528
 21
150.0209285714
 31
0.0
  0
LINE
  5
DD
  8
0
  6
HIDDEN
 62
     7
 10
250.7166810528
 20
150.0209285714
 30
0.0
 11
250.7166810528
 21
260.2209285714
 31
0.0
  0
LINE
  5
DE
  8
0
  6
HIDDEN
 62
     7
 10
234.9166810528
 20
260.2209285714
 30
0.0
 11
250.7166810528
 21
260.2209285714
 31
0.0
  0
LINE
  5
DF
  8
0
  6
HIDDEN
 62
     7
 10
234.9166810528
 20
171.2709285714
 30
0.0
 11
234.6166810528
 21
171.2709285714
 31
0.0
  0
LINE
  5
E0
  8
0
  6
HIDDEN
 62
     7
 10
234.9166810528
 20
172.9709285714
 30
0.0
 11
234.6166810528
 21
172.9709285714
 31
0.0
  0
LINE
  5
E1
  8
0
  6
HIDDEN
 62
     7
 10
234.9166810528
 20
204.2709285714
 30
0.0
 11
234.6166810528
 21
204.2709285714
 31
0.0
  0
LINE
  5
E2
  8
0
  6
HIDDEN
 62
     7
 10
234.9166810528
 20
205.9709285714
 30
0.0
 11
234.6166810528
 21
205.9709285714
 31
0.0
  0
LINE
  5
E3
  8
0
  6
HIDDEN
 62
     7
 10
234.9166810528
 20
238.9709285714
 30
0.0
 11
234.6166810528
 21
238.9709285714
 31
0.0
  0
LINE
  5
E4
  8
0
  6
HIDDEN
 62
     7
 10
234.9166810528
 20
237.2709285714
 30
0.0
 11
234.6166810528
 21
237.2709285714
 31
0.0
  0
LINE
  5
E5
  8
0
  6
HIDDEN
 62
     7
 10
234.9166810528
 20
152.1209285714
 30
0.0
 11
234.6166810528
 21
152.1209285714
 31
0.0
  0
LINE
  5
E6
  8
0
  6
HIDDEN
 62
     7
 10
234.9166810528
 20
167.1209285714
 30
0.0
 11
234.6166810528
 21
167.1209285714
 31
0.0
  0
LINE
  5
E7
  8
0
  6
HIDDEN
 62
     7
 10
234.6166810528
 20
243.1209285714
 30
0.0
 11
234.9166810528
 21
243.1209285714
 31
0.0
  0
LINE
  5
E8
  8
0
  6
HIDDEN
 62
     7
 10
234.9166810528
 20
258.1209285714
 30
0.0
 11
234.6166810528
 21
258.1209285714
 31
0.0
  0
LINE
  5
E9
  8
0
  6
HIDDEN
 62
     7
 10
250.7166810528
 20
173.9709285714
 30
0.0
 11
251.0166810528
 21
173.9709285714
 31
0.0
  0
LINE
  5
EA
  8
0
  6
HIDDEN
 62
     7
 10
250.7166810528
 20
171.4709285714
 30
0.0
 11
251.0166810528
 21
171.4709285714
 31
0.0
  0
LINE
  5
EB
  8
0
  6
HIDDEN
 62
     7
 10
250.7166810528
 20
236.2709285714
 30
0.0
 11
251.0166810528
 21
236.2709285714
 31
0.0
  0
LINE
  5
EC
  8
0
  6
HIDDEN
 62
     7
 10
250.7166810528
 20
238.7709285714
 30
0.0
 11
251.0166810528
 21
238.7709285714
 31
0.0
  0
LINE
  5
ED
  8
0
  6
HIDDEN
 62
     7
 10
250.7166810528
 20
159.7209285714
 30
0.0
 11
251.0166810528
 21
159.7209285714
 31
0.0
  0
LINE
  5
EE
  8
0
  6
HIDDEN
 62
     7
 10
251.0166810528
 20
250.5209285714
 30
0.0
 11
250.7166810528
 21
250.5209285714
 31
0.0
  0
LINE
  5
EF
  8
0
  6
HIDDEN
 62
     7
 10
234.6166810528
 20
154.9209285714
 30
0.0
 11
234.9166810528
 21
154.9209285714
 31
0.0
  0
LINE
  5
F0
  8
0
  6
HIDDEN
 62
     7
 10
234.9166810528
 20
255.3209285714
 30
0.0
 11
234.6166810528
 21
255.3209285714
 31
0.0
  0
LINE
  5
F1
  8
0
  6
HIDDEN
 62
     7
 10
250.7166810528
 20
155.4709285714
 30
0.0
 11
251.0166810528
 21
155.4709285714
 31
0.0
  0
LINE
  5
F2
  8
0
  6
HIDDEN
 62
     7
 10
250.7166810528
 20
157.9709285714
 30
0.0
 11
251.0166810528
 21
157.9709285714
 31
0.0
  0
LINE
  5
F3
  8
0
  6
HIDDEN
 62
     7
 10
250.7166810528
 20
252.2709285714
 30
0.0
 11
251.0166810528
 21
252.2709285714
 31
0.0
  0
LINE
  5
F4
  8
0
  6
HIDDEN
 62
     7
 10
250.7166810528
 20
254.7709285714
 30
0.0
 11
251.0166810528
 21
254.7709285714
 31
0.0
  0
LINE
  5
F5
  8
0
  6
HIDDEN
 62
     7
 10
234.9166810528
 20
151.4709285714
 30
0.0
 11
234.6166810528
 21
151.4709285714
 31
0.0
  0
LINE
  5
F6
  8
0
  6
HIDDEN
 62
     7
 10
234.9166810528
 20
153.1709285714
 30
0.0
 11
234.6166810528
 21
153.1709285714
 31
0.0
  0
LINE
  5
F7
  8
0
  6
HIDDEN
 62
     7
 10
234.9166810528
 20
257.0709285714
 30
0.0
 11
234.6166810528
 21
257.0709285714
 31
0.0
  0
LINE
  5
F8
  8
0
  6
HIDDEN
 62
     7
 10
234.9166810528
 20
258.7709285714
 30
0.0
 11
234.6166810528
 21
258.7709285714
 31
0.0
  0
LINE
  5
F9
  8
0
  6
HIDDEN
 62
     7
 10
250.7166810528
 20
159.3209285714
 30
0.0
 11
251.0166810528
 21
159.3209285714
 31
0.0
  0
LINE
  5
FA
  8
0
  6
HIDDEN
 62
     7
 10
251.0166810528
 20
250.9209285714
 30
0.0
 11
250.7166810528
 21
250.9209285714
 31
0.0
  0
LINE
  5
FB
  8
0
  6
CONTINUOUS
 62
     7
 10
53.1749371921
 20
80.1026960723
 30
0.0
 11
165.3749371921
 21
80.1026960723
 31
0.0
  0
LINE
  5
FC
  8
0
  6
CONTINUOUS
 62
     7
 10
165.3749371921
 20
80.1026960723
 30
0.0
 11
165.3749371921
 21
64.1026960723
 31
0.0
  0
LINE
  5
FD
  8
0
  6
CONTINUOUS
 62
     7
 10
53.1749371921
 20
80.1026960723
 30
0.0
 11
53.1749371921
 21
64.1026960723
 31
0.0
  0
ARC
  5
FE
  8
0
  6
CONTINUOUS
 62
     7
 10
164.9749371921
 20
64.1026960723
 30
0.0
 40
0.4000000000000341
 50
270.0
 51
0.0
  0
LINE
  5
FF
  8
0
  6
CONTINUOUS
 62
     7
 10
164.9749371921
 20
63.7026960723
 30
0.0
 11
53.5749371921
 21
63.7026960723
 31
0.0
  0
ARC
  5
100
  8
0
  6
CONTINUOUS
 62
     7
 10
53.5749371921
 20
64.1026960723
 30
0.0
 40
0.4000000000000057
 50
180.0
 51
270.0
  0
LINE
  5
101
  8
0
  6
HIDDEN
 62
     7
 10
53.4749371921
 20
79.8026960723
 30
0.0
 11
165.0749371921
 21
79.8026960723
 31
0.0
  0
LINE
  5
102
  8
0
  6
HIDDEN
 62
     7
 10
53.4749371921
 20
79.8026960723
 30
0.0
 11
53.4749371921
 21
64.0026960723
 31
0.0
  0
LINE
  5
103
  8
0
  6
HIDDEN
 62
     7
 10
53.4749371921
 20
64.0026960723
 30
0.0
 11
165.0749371921
 21
64.0026960723
 31
0.0
  0
LINE
  5
104
  8
0
  6
HIDDEN
 62
     7
 10
165.0749371921
 20
79.8026960723
 30
0.0
 11
165.0749371921
 21
64.0026960723
 31
0.0
  0
LINE
  5
105
  8
0
  6
HIDDEN
 62
     7
 10
75.4249371921
 20
79.8026960723
 30
0.0
 11
75.4249371921
 21
80.1026960723
 31
0.0
  0
LINE
  5
106
  8
0
  6
HIDDEN
 62
     7
 10
77.1249371921
 20
79.8026960723
 30
0.0
 11
77.1249371921
 21
80.1026960723
 31
0.0
  0
LINE
  5
107
  8
0
  6
HIDDEN
 62
     7
 10
108.4249371921
 20
79.8026960723
 30
0.0
 11
108.4249371921
 21
80.1026960723
 31
0.0
  0
LINE
  5
108
  8
0
  6
HIDDEN
 62
     7
 10
110.1249371921
 20
79.8026960723
 30
0.0
 11
110.1249371921
 21
80.1026960723
 31
0.0
  0
LINE
  5
109
  8
0
  6
HIDDEN
 62
     7
 10
141.4249371921
 20
79.8026960723
 30
0.0
 11
141.4249371921
 21
80.1026960723
 31
0.0
  0
LINE
  5
10A
  8
0
  6
HIDDEN
 62
     7
 10
143.1249371921
 20
79.8026960723
 30
0.0
 11
143.1249371921
 21
80.1026960723
 31
0.0
  0
LINE
  5
10B
  8
0
  6
HIDDEN
 62
     7
 10
55.5749371921
 20
79.8026960723
 30
0.0
 11
55.5749371921
 21
80.1026960723
 31
0.0
  0
LINE
  5
10C
  8
0
  6
HIDDEN
 62
     7
 10
70.5749371921
 20
79.8026960723
 30
0.0
 11
70.5749371921
 21
80.1026960723
 31
0.0
  0
LINE
  5
10D
  8
0
  6
HIDDEN
 62
     7
 10
147.9749371921
 20
80.1026960723
 30
0.0
 11
147.9749371921
 21
79.8026960723
 31
0.0
  0
LINE
  5
10E
  8
0
  6
HIDDEN
 62
     7
 10
162.9749371921
 20
79.8026960723
 30
0.0
 11
162.9749371921
 21
80.1026960723
 31
0.0
  0
LINE
  5
10F
  8
0
  6
HIDDEN
 62
     7
 10
75.0249371921
 20
64.0026960723
 30
0.0
 11
75.0249371921
 21
63.7026960723
 31
0.0
  0
LINE
  5
110
  8
0
  6
HIDDEN
 62
     7
 10
77.5249371921
 20
64.0026960723
 30
0.0
 11
77.5249371921
 21
63.7026960723
 31
0.0
  0
LINE
  5
111
  8
0
  6
HIDDEN
 62
     7
 10
141.0249371921
 20
64.0026960723
 30
0.0
 11
141.0249371921
 21
63.7026960723
 31
0.0
  0
LINE
  5
112
  8
0
  6
HIDDEN
 62
     7
 10
143.5249371921
 20
64.0026960723
 30
0.0
 11
143.5249371921
 21
63.7026960723
 31
0.0
  0
LINE
  5
113
  8
0
  6
HIDDEN
 62
     7
 10
108.8749371921
 20
64.0026960723
 30
0.0
 11
108.8749371921
 21
63.7026960723
 31
0.0
  0
LINE
  5
114
  8
0
  6
HIDDEN
 62
     7
 10
109.6749371921
 20
63.7026960723
 30
0.0
 11
109.6749371921
 21
64.0026960723
 31
0.0
  0
LINE
  5
115
  8
0
  6
HIDDEN
 62
     7
 10
63.2749371921
 20
64.0026960723
 30
0.0
 11
63.2749371921
 21
63.7026960723
 31
0.0
  0
LINE
  5
116
  8
0
  6
HIDDEN
 62
     7
 10
155.2749371921
 20
63.7026960723
 30
0.0
 11
155.2749371921
 21
64.0026960723
 31
0.0
  0
LINE
  5
117
  8
0
  6
HIDDEN
 62
     7
 10
58.3749371921
 20
80.1026960723
 30
0.0
 11
58.3749371921
 21
79.8026960723
 31
0.0
  0
LINE
  5
118
  8
0
  6
HIDDEN
 62
     7
 10
160.1749371921
 20
79.8026960723
 30
0.0
 11
160.1749371921
 21
80.1026960723
 31
0.0
  0
LINE
  5
119
  8
0
  6
HIDDEN
 62
     7
 10
54.8249371921
 20
79.8026960723
 30
0.0
 11
54.8249371921
 21
80.1026960723
 31
0.0
  0
LINE
  5
11A
  8
0
  6
HIDDEN
 62
     7
 10
56.5249371921
 20
79.8026960723
 30
0.0
 11
56.5249371921
 21
80.1026960723
 31
0.0
  0
LINE
  5
11B
  8
0
  6
HIDDEN
 62
     7
 10
162.0249371921
 20
79.8026960723
 30
0.0
 11
162.0249371921
 21
80.1026960723
 31
0.0
  0
LINE
  5
11C
  8
0
  6
HIDDEN
 62
     7
 10
163.7249371921
 20
79.8026960723
 30
0.0
 11
163.7249371921
 21
80.1026960723
 31
0.0
  0
LINE
  5
11D
  8
0
  6
HIDDEN
 62
     7
 10
59.0249371921
 20
64.0026960723
 30
0.0
 11
59.0249371921
 21
63.7026960723
 31
0.0
  0
LINE
  5
11E
  8
0
  6
HIDDEN
 62
     7
 10
61.5249371921
 20
64.0026960723
 30
0.0
 11
61.5249371921
 21
63.7026960723
 31
0.0
  0
LINE
  5
11F
  8
0
  6
HIDDEN
 62
     7
 10
157.0249371921
 20
64.0026960723
 30
0.0
 11
157.0249371921
 21
63.7026960723
 31
0.0
  0
LINE
  5
120
  8
0
  6
HIDDEN
 62
     7
 10
159.5249371921
 20
64.0026960723
 30
0.0
 11
159.5249371921
 21
63.7026960723
 31
0.0
  0
ENDSEC
  0
EOF
