  0
SECTION
  2
HEADER
  9
$ACADVER
  1
AC1009
  9
$DWGCODEPAGE
  3
ansi_1252
  9
$INSBASE
 10
0.0
 20
0.0
 30
0.0
  9
$EXTMIN
 10
0.0
 20
0.0
 30
0.0
  9
$EXTMAX
 10
2100.0
 20
1485.0
 30
0.0
  9
$LIMMIN
 10
0.0
 20
0.0
  9
$LIMMAX
 10
2100.0
 20
1485.0
  9
$ORTHOMODE
 70
     0
  9
$REGENMODE
 70
     1
  9
$FILLMODE
 70
     1
  9
$QTEXTMODE
 70
     0
  9
$MIRRTEXT
 70
     1
  9
$DRAGMODE
 70
     2
  9
$LTSCALE
 40
5.0
  9
$OSMODE
 70
    37
  9
$ATTMODE
 70
     1
  9
$TEXTSIZE
 40
17.5
  9
$TRACEWID
 40
1.0
  9
$TEXTSTYLE
  7
STANDARD
  9
$CLAYER
  8
0
  9
$CELTYPE
  6
BYLAYER
  9
$CECOLOR
 62
   256
  9
$DIMSCALE
 40
1.0
  9
$DIMASZ
 40
20.0
  9
$DIMEXO
 40
0.0
  9
$DIMDLI
 40
3.75
  9
$DIMRND
 40
0.0
  9
$DIMDLE
 40
0.0
  9
$DIMEXE
 40
10.0
  9
$DIMTP
 40
0.0
  9
$DIMTM
 40
0.0
  9
$DIMTXT
 40
17.5
  9
$DIMCEN
 40
2.5
  9
$DIMTSZ
 40
0.0
  9
$DIMTOL
 70
     0
  9
$DIMLIM
 70
     0
  9
$DIMTIH
 70
     1
  9
$DIMTOH
 70
     1
  9
$DIMSE1
 70
     0
  9
$DIMSE2
 70
     0
  9
$DIMTAD
 70
     1
  9
$DIMZIN
 70
     0
  9
$DIMBLK
  1

  9
$DIMASO
 70
     1
  9
$DIMSHO
 70
     1
  9
$DIMPOST
  1

  9
$DIMAPOST
  1

  9
$DIMALT
 70
     0
  9
$DIMALTD
 70
     3
  9
$DIMALTF
 40
0.0393700787
  9
$DIMLFAC
 40
1.0
  9
$DIMTOFL
 70
     1
  9
$DIMTVP
 40
0.0
  9
$DIMTIX
 70
     0
  9
$DIMSOXD
 70
     0
  9
$DIMSAH
 70
     0
  9
$DIMBLK1
  1

  9
$DIMBLK2
  1

  9
$DIMSTYLE
  2
ISO-25
  9
$DIMCLRD
 70
     0
  9
$DIMCLRE
 70
     0
  9
$DIMCLRT
 70
     0
  9
$DIMTFAC
 40
1.0
  9
$DIMGAP
 40
7.62
  9
$LUNITS
 70
     2
  9
$LUPREC
 70
     2
  9
$SKETCHINC
 40
1.0
  9
$FILLETRAD
 40
10.0
  9
$AUNITS
 70
     0
  9
$AUPREC
 70
     2
  9
$MENU
  1
.
  9
$ELEVATION
 40
0.0
  9
$PELEVATION
 40
0.0
  9
$THICKNESS
 40
0.0
  9
$LIMCHECK
 70
     0
  9
$CHAMFERA
 40
10.0
  9
$CHAMFERB
 40
10.0
  9
$SKPOLY
 70
     0
  9
$TDCREATE
 40
2457029.595377048
  9
$TDUPDATE
 40
2457029.595377234
  9
$TDINDWG
 40
0.0000000116
  9
$TDUSRTIMER
 40
0.0000000116
  9
$USRTIMER
 70
     1
  9
$ANGBASE
 50
0.0
  9
$ANGDIR
 70
     0
  9
$PDMODE
 70
     0
  9
$PDSIZE
 40
-1.0
  9
$PLINEWID
 40
0.0
  9
$COORDS
 70
     1
  9
$SPLFRAME
 70
     0
  9
$SPLINETYPE
 70
     6
  9
$SPLINESEGS
 70
     8
  9
$ATTDIA
 70
     0
  9
$ATTREQ
 70
     1
  9
$HANDLING
 70
     1
  9
$HANDSEED
  5
12A
  9
$SURFTAB1
 70
     6
  9
$SURFTAB2
 70
     6
  9
$SURFTYPE
 70
     6
  9
$SURFU
 70
     6
  9
$SURFV
 70
     6
  9
$UCSNAME
  2

  9
$UCSORG
 10
0.0
 20
0.0
 30
0.0
  9
$UCSXDIR
 10
1.0
 20
0.0
 30
0.0
  9
$UCSYDIR
 10
0.0
 20
1.0
 30
0.0
  9
$PUCSNAME
  2

  9
$PUCSORG
 10
0.0
 20
0.0
 30
0.0
  9
$PUCSXDIR
 10
1.0
 20
0.0
 30
0.0
  9
$PUCSYDIR
 10
0.0
 20
1.0
 30
0.0
  9
$USERI1
 70
     0
  9
$USERI2
 70
     0
  9
$USERI3
 70
     0
  9
$USERI4
 70
     0
  9
$USERI5
 70
     0
  9
$USERR1
 40
0.0
  9
$USERR2
 40
0.0
  9
$USERR3
 40
0.0
  9
$USERR4
 40
0.0
  9
$USERR5
 40
0.0
  9
$WORLDVIEW
 70
     1
  9
$SHADEDGE
 70
     3
  9
$SHADEDIF
 70
    70
  9
$TILEMODE
 70
     1
  9
$MAXACTVP
 70
    64
  9
$PLIMCHECK
 70
     0
  9
$PEXTMIN
 10
1.0000000000E+20
 20
1.0000000000E+20
 30
1.0000000000E+20
  9
$PEXTMAX
 10
-1.0000000000E+20
 20
-1.0000000000E+20
 30
-1.0000000000E+20
  9
$PLIMMIN
 10
0.0
 20
0.0
  9
$PLIMMAX
 10
420.0
 20
297.0
  9
$UNITMODE
 70
     0
  9
$VISRETAIN
 70
     1
  9
$PLINEGEN
 70
     0
  9
$PSLTSCALE
 70
     1
  0
ENDSEC
  0
SECTION
  2
TABLES
  0
TABLE
  2
VPORT
 70
     1
  0
VPORT
  2
*ACTIVE
 70
     0
 10
0.0
 20
0.0
 11
1.0
 21
1.0
 12
1050.0
 22
742.5
 13
0.0
 23
0.0
 14
10.0
 24
10.0
 15
10.0
 25
10.0
 16
0.0
 26
0.0
 36
1.0
 17
0.0
 27
0.0
 37
0.0
 40
1485.0
 41
1.4141414141
 42
50.0
 43
0.0
 44
0.0
 50
0.0
 51
0.0
 71
     0
 72
  2000
 73
     1
 74
     3
 75
     0
 76
     0
 77
     0
 78
     0
  0
ENDTAB
  0
TABLE
  2
LTYPE
 70
     6
  0
LTYPE
  2
CONTINUOUS
 70
     0
  3
Solid line
 72
    65
 73
     0
 40
0.0
  0
LTYPE
  2
HIDDEN
 70
     0
  3
Hidden __ __ __ __ __ __ __ __ __ __ __ __ __ __
 72
    65
 73
     2
 40
1.905
 49
1.27
 49
-0.635
  0
LTYPE
  2
PHANTOM
 70
     0
  3
Phantom ______  __  __  ______  __  __  ______
 72
    65
 73
     6
 40
12.7
 49
6.35
 49
-1.27
 49
1.27
 49
-1.27
 49
1.27
 49
-1.27
  0
LTYPE
  2
CENTER
 70
     0
  3
Center ____ _ ____ _ ____ _ ____ _ ____ _ ____
 72
    65
 73
     4
 40
10.16
 49
6.35
 49
-1.27
 49
1.27
 49
-1.27
  0
LTYPE
  2
CENTERX2
 70
     0
  3
Center (2x) ________  __  ________  __  _____
 72
    65
 73
     4
 40
20.32
 49
12.7
 49
-2.54
 49
2.54
 49
-2.54
  0
LTYPE
  2
DOT2
 70
     0
  3
Dot (.5x) ........................................
 72
    65
 73
     2
 40
0.635
 49
0.0
 49
-0.635
  0
ENDTAB
  0
TABLE
  2
LAYER
 70
     2
  0
LAYER
  2
0
 70
     0
 62
     7
  6
CONTINUOUS
  0
LAYER
  2
FORMAT
 70
     0
 62
     7
  6
CONTINUOUS
  0
ENDTAB
  0
TABLE
  2
STYLE
 70
     1
  0
STYLE
  2
STANDARD
 70
     0
 40
0.0
 41
1.0
 50
0.0
 71
     0
 42
17.5
  3
txt
  4

  0
ENDTAB
  0
TABLE
  2
VIEW
 70
     0
  0
ENDTAB
  0
TABLE
  2
UCS
 70
     0
  0
ENDTAB
  0
TABLE
  2
APPID
 70
     1
  0
APPID
  2
ACAD
 70
     0
  0
ENDTAB
  0
TABLE
  2
DIMSTYLE
 70
     1
  0
DIMSTYLE
  2
ISO-25
 70
     0
  3

  4

  5

  6

  7

 40
1.0
 41
2.5
 42
0.625
 43
3.75
 44
1.25
 45
0.0
 46
0.0
 47
0.0
 48
0.0
140
2.5
141
2.5
142
0.0
143
0.0393700787
144
1.0
145
0.0
146
1.0
147
0.625
 71
     0
 72
     0
 73
     0
 74
     0
 75
     0
 76
     0
 77
     1
 78
     8
170
     0
171
     3
172
     1
173
     0
174
     0
175
     0
176
     0
177
     0
178
     0
  0
ENDTAB
  0
ENDSEC
  0
SECTION
  2
BLOCKS
  0
BLOCK
  8
0
  2
$MODEL_SPACE
 70
     0
 10
0.0
 20
0.0
 30
0.0
  3
$MODEL_SPACE
  1

  0
ENDBLK
  5
21
  8
0
  0
BLOCK
 67
     1
  8
0
  2
$PAPER_SPACE
 70
     0
 10
0.0
 20
0.0
 30
0.0
  3
$PAPER_SPACE
  1

  0
ENDBLK
  5
1D
 67
     1
  8
0
  0
ENDSEC
  0
SECTION
  2
ENTITIES
  0
LINE
  5
45
  8
0
  6
CONTINUOUS
 62
     7
 10
2074.25
 20
25.75
 30
0.0
 11
25.75
 21
25.75
 31
0.0
  0
LINE
  5
46
  8
0
  6
CONTINUOUS
 62
     7
 10
2075.0
 20
25.0
 30
0.0
 11
2075.0
 21
1385.0
 31
0.0
  0
LINE
  5
47
  8
0
  6
CONTINUOUS
 62
     7
 10
2075.0
 20
1385.0
 30
0.0
 11
25.0
 21
1385.0
 31
0.0
  0
LINE
  5
48
  8
0
  6
CONTINUOUS
 62
     7
 10
25.75
 20
1384.25
 30
0.0
 11
25.75
 21
25.75
 31
0.0
  0
LINE
  5
49
  8
0
  6
CONTINUOUS
 62
     7
 10
748.1589285714
 20
1087.5866071429
 30
0.0
 11
736.1589285714
 21
1087.5866071429
 31
0.0
  0
LINE
  5
4A
  8
0
  6
CONTINUOUS
 62
     7
 10
420.1589285714
 20
1087.5866071429
 30
0.0
 11
408.1589285714
 21
1087.5866071429
 31
0.0
  0
LINE
  5
4B
  8
0
  6
CONTINUOUS
 62
     7
 10
408.1589285714
 20
1067.5866071429
 30
0.0
 11
420.1589285714
 21
1067.5866071429
 31
0.0
  0
LINE
  5
4C
  8
0
  6
CONTINUOUS
 62
     7
 10
736.1589285714
 20
1067.5866071429
 30
0.0
 11
748.1589285714
 21
1067.5866071429
 31
0.0
  0
LINE
  5
4D
  8
0
  6
CONTINUOUS
 62
     7
 10
419.6589285714
 20
1119.5866071429
 30
0.0
 11
419.6589285714
 21
1094.5866071429
 31
0.0
  0
LINE
  5
4E
  8
0
  6
CONTINUOUS
 62
     7
 10
736.6589285714
 20
1119.5866071429
 30
0.0
 11
736.6589285714
 21
1094.5866071429
 31
0.0
  0
LINE
  5
4F
  8
0
  6
CONTINUOUS
 62
     7
 10
736.6589285714
 20
1094.5866071429
 30
0.0
 11
419.6589285714
 21
1094.5866071429
 31
0.0
  0
LINE
  5
50
  8
0
  6
CONTINUOUS
 62
     7
 10
427.6589285714
 20
1127.5866071429
 30
0.0
 11
728.6589285714
 21
1127.5866071429
 31
0.0
  0
ARC
  5
51
  8
0
  6
CONTINUOUS
 62
     7
 10
427.6589285714
 20
1119.5866071429
 30
0.0
 40
8.000000000000114
 50
90.0
 51
180.0
  0
ARC
  5
52
  8
0
  6
CONTINUOUS
 62
     7
 10
728.6589285714
 20
1119.5866071429
 30
0.0
 40
8.0
 50
360.0
 51
90.0
  0
LINE
  5
53
  8
0
  6
CONTINUOUS
 62
     7
 10
420.1589285714
 20
1089.5866071429
 30
0.0
 11
420.1589285714
 21
1087.0866071429
 31
0.0
  0
LINE
  5
54
  8
0
  6
CONTINUOUS
 62
     7
 10
736.1589285714
 20
1089.5866071429
 30
0.0
 11
736.1589285714
 21
1087.0866071429
 31
0.0
  0
LINE
  5
55
  8
0
  6
CONTINUOUS
 62
     7
 10
420.1589285714
 20
1094.5866071429
 30
0.0
 11
420.1589285714
 21
1089.5866071429
 31
0.0
  0
LINE
  5
56
  8
0
  6
CONTINUOUS
 62
     7
 10
736.1589285714
 20
1094.5866071429
 30
0.0
 11
736.1589285714
 21
1089.5866071429
 31
0.0
  0
ARC
  5
57
  8
0
  6
CONTINUOUS
 62
     7
 10
733.1589285714
 20
1057.5866071429
 30
0.0
 40
3.000000000001049
 50
330.0
 51
360.0
  0
ARC
  5
58
  8
0
  6
CONTINUOUS
 62
     7
 10
423.1589285714
 20
1057.5866071429
 30
0.0
 40
3.000000000000114
 50
180.0
 51
210.0
  0
LINE
  5
59
  8
0
  6
CONTINUOUS
 62
     7
 10
420.1589285714
 20
1087.0866071429
 30
0.0
 11
420.1589285714
 21
1057.5866071429
 31
0.0
  0
LINE
  5
5A
  8
0
  6
CONTINUOUS
 62
     7
 10
736.1589285714
 20
1087.0866071429
 30
0.0
 11
736.1589285714
 21
1057.5866071429
 31
0.0
  0
LINE
  5
5B
  8
0
  6
CONTINUOUS
 62
     7
 10
733.1589285714
 20
1054.5866071429
 30
0.0
 11
423.1589285714
 21
1054.5866071429
 31
0.0
  0
ARC
  5
5C
  8
0
  6
CONTINUOUS
 62
     7
 10
423.1589285714
 20
1057.5866071429
 30
0.0
 40
2.999999999999788
 50
210.0
 51
270.0
  0
ARC
  5
5D
  8
0
  6
CONTINUOUS
 62
     7
 10
733.1589285714
 20
1057.5866071429
 30
0.0
 40
3.000000000000049
 50
270.0
 51
330.0
  0
LINE
  5
5E
  8
0
  6
CONTINUOUS
 62
     7
 10
752.1589285714
 20
1032.5108447604
 30
0.0
 11
752.1589285714
 21
1019.2443809953
 31
0.0
  0
LINE
  5
5F
  8
0
  6
CONTINUOUS
 62
     7
 10
748.1589285714
 20
1019.2443809953
 30
0.0
 11
748.1589285714
 21
1032.5108447604
 31
0.0
  0
LINE
  5
60
  8
0
  6
CONTINUOUS
 62
     7
 10
408.1589285714
 20
1032.5108447604
 30
0.0
 11
408.1589285714
 21
1019.2443809953
 31
0.0
  0
LINE
  5
61
  8
0
  6
CONTINUOUS
 62
     7
 10
404.1589285714
 20
1032.5108447604
 30
0.0
 11
404.1589285714
 21
1019.2443809953
 31
0.0
  0
LINE
  5
62
  8
0
  6
CONTINUOUS
 62
     7
 10
752.1589285714
 20
1089.598960466
 30
0.0
 11
752.1589285714
 21
1032.5108447604
 31
0.0
  0
LINE
  5
63
  8
0
  6
CONTINUOUS
 62
     7
 10
748.1589285714
 20
1032.5108447604
 30
0.0
 11
748.1589285714
 21
1089.598960466
 31
0.0
  0
LINE
  5
64
  8
0
  6
CONTINUOUS
 62
     7
 10
408.1589285714
 20
1089.598960466
 30
0.0
 11
408.1589285714
 21
1032.5108447604
 31
0.0
  0
LINE
  5
65
  8
0
  6
CONTINUOUS
 62
     7
 10
404.1589285714
 20
1089.598960466
 30
0.0
 11
404.1589285714
 21
1032.5108447604
 31
0.0
  0
LINE
  5
66
  8
0
  6
CONTINUOUS
 62
     7
 10
404.1589285714
 20
1015.5866071429
 30
0.0
 11
408.1589285714
 21
1015.5866071429
 31
0.0
  0
LINE
  5
67
  8
0
  6
CONTINUOUS
 62
     7
 10
408.1589285714
 20
1019.2443809953
 30
0.0
 11
408.1589285714
 21
1015.5866071429
 31
0.0
  0
LINE
  5
68
  8
0
  6
CONTINUOUS
 62
     7
 10
404.1589285714
 20
1019.2443809953
 30
0.0
 11
404.1589285714
 21
1015.5866071429
 31
0.0
  0
LINE
  5
69
  8
0
  6
CONTINUOUS
 62
     7
 10
748.1589285714
 20
1015.5866071429
 30
0.0
 11
752.1589285714
 21
1015.5866071429
 31
0.0
  0
LINE
  5
6A
  8
0
  6
CONTINUOUS
 62
     7
 10
752.1589285714
 20
1019.2443809953
 30
0.0
 11
752.1589285714
 21
1015.5866071429
 31
0.0
  0
LINE
  5
6B
  8
0
  6
CONTINUOUS
 62
     7
 10
748.1589285714
 20
1015.5866071429
 30
0.0
 11
748.1589285714
 21
1019.2443809953
 31
0.0
  0
LINE
  5
6C
  8
0
  6
CONTINUOUS
 62
     7
 10
408.1589285714
 20
1110.3289640221
 30
0.0
 11
408.1589285714
 21
1089.598960466
 31
0.0
  0
LINE
  5
6D
  8
0
  6
CONTINUOUS
 62
     7
 10
404.1589285714
 20
1110.3289640221
 30
0.0
 11
404.1589285714
 21
1089.598960466
 31
0.0
  0
LINE
  5
6E
  8
0
  6
CONTINUOUS
 62
     7
 10
752.1589285714
 20
1110.3289640221
 30
0.0
 11
752.1589285714
 21
1089.598960466
 31
0.0
  0
LINE
  5
6F
  8
0
  6
CONTINUOUS
 62
     7
 10
748.1589285714
 20
1089.598960466
 30
0.0
 11
748.1589285714
 21
1110.3289640221
 31
0.0
  0
LINE
  5
70
  8
0
  6
CONTINUOUS
 62
     7
 10
404.1589285714
 20
1119.5866071429
 30
0.0
 11
408.1589285714
 21
1119.5866071429
 31
0.0
  0
LINE
  5
71
  8
0
  6
CONTINUOUS
 62
     7
 10
408.1589285714
 20
1119.5866071429
 30
0.0
 11
408.1589285714
 21
1110.3289640221
 31
0.0
  0
LINE
  5
72
  8
0
  6
CONTINUOUS
 62
     7
 10
404.1589285714
 20
1119.5866071429
 30
0.0
 11
404.1589285714
 21
1110.3289640221
 31
0.0
  0
LINE
  5
73
  8
0
  6
CONTINUOUS
 62
     7
 10
748.1589285714
 20
1119.5866071429
 30
0.0
 11
752.1589285714
 21
1119.5866071429
 31
0.0
  0
LINE
  5
74
  8
0
  6
CONTINUOUS
 62
     7
 10
752.1589285714
 20
1119.5866071429
 30
0.0
 11
752.1589285714
 21
1110.3289640221
 31
0.0
  0
LINE
  5
75
  8
0
  6
CONTINUOUS
 62
     7
 10
748.1589285714
 20
1110.3289640221
 30
0.0
 11
748.1589285714
 21
1119.5866071429
 31
0.0
  0
LINE
  5
76
  8
0
  6
CONTINUOUS
 62
     7
 10
408.1589285714
 20
1119.5866071429
 30
0.0
 11
410.1589285714
 21
1119.5866071429
 31
0.0
  0
LINE
  5
77
  8
0
  6
CONTINUOUS
 62
     7
 10
410.1589285714
 20
1015.5866071429
 30
0.0
 11
408.1589285714
 21
1015.5866071429
 31
0.0
  0
LINE
  5
78
  8
0
  6
CONTINUOUS
 62
     7
 10
746.1589285714
 20
1119.5866071429
 30
0.0
 11
748.1589285714
 21
1119.5866071429
 31
0.0
  0
LINE
  5
79
  8
0
  6
CONTINUOUS
 62
     7
 10
748.1589285714
 20
1015.5866071429
 30
0.0
 11
746.1589285714
 21
1015.5866071429
 31
0.0
  0
LINE
  5
7A
  8
0
  6
CONTINUOUS
 62
     7
 10
452.1589285714
 20
1025.5866071429
 30
0.0
 11
452.1589285714
 21
1054.5866071429
 31
0.0
  0
ARC
  5
7B
  8
0
  6
CONTINUOUS
 62
     7
 10
442.1589285714
 20
1025.5866071429
 30
0.0
 40
10.0
 50
270.0
 51
0.0
  0
ARC
  5
7C
  8
0
  6
CONTINUOUS
 62
     7
 10
430.6589285714
 20
1040.0866071429
 30
0.0
 40
5.5
 50
270.0
 51
90.0
  0
LINE
  5
7D
  8
0
  6
CONTINUOUS
 62
     7
 10
428.1589285714
 20
1045.5866071429
 30
0.0
 11
430.6589285714
 21
1045.5866071429
 31
0.0
  0
ARC
  5
7E
  8
0
  6
CONTINUOUS
 62
     7
 10
428.1589285714
 20
1040.0866071429
 30
0.0
 40
5.5
 50
90.0
 51
270.0
  0
LINE
  5
7F
  8
0
  6
CONTINUOUS
 62
     7
 10
430.6589285714
 20
1034.5866071429
 30
0.0
 11
428.1589285714
 21
1034.5866071429
 31
0.0
  0
LINE
  5
80
  8
0
  6
CONTINUOUS
 62
     7
 10
419.6589285714
 20
1119.5866071429
 30
0.0
 11
410.1589285714
 21
1119.5866071429
 31
0.0
  0
LINE
  5
81
  8
0
  6
CONTINUOUS
 62
     7
 10
442.1589285714
 20
1015.5866071429
 30
0.0
 11
410.1589285714
 21
1015.5866071429
 31
0.0
  0
ARC
  5
82
  8
0
  6
CONTINUOUS
 62
     7
 10
714.1589285714
 20
1025.5866071429
 30
0.0
 40
10.0
 50
180.0
 51
270.0
  0
LINE
  5
83
  8
0
  6
CONTINUOUS
 62
     7
 10
704.1589285714
 20
1054.5866071429
 30
0.0
 11
704.1589285714
 21
1025.5866071429
 31
0.0
  0
ARC
  5
84
  8
0
  6
CONTINUOUS
 62
     7
 10
728.1589285714
 20
1040.0866071429
 30
0.0
 40
5.5
 50
270.0
 51
90.0
  0
LINE
  5
85
  8
0
  6
CONTINUOUS
 62
     7
 10
725.6589285714
 20
1045.5866071429
 30
0.0
 11
728.1589285714
 21
1045.5866071429
 31
0.0
  0
ARC
  5
86
  8
0
  6
CONTINUOUS
 62
     7
 10
725.6589285714
 20
1040.0866071429
 30
0.0
 40
5.5
 50
90.0
 51
270.0
  0
LINE
  5
87
  8
0
  6
CONTINUOUS
 62
     7
 10
728.1589285714
 20
1034.5866071429
 30
0.0
 11
725.6589285714
 21
1034.5866071429
 31
0.0
  0
LINE
  5
88
  8
0
  6
CONTINUOUS
 62
     7
 10
746.1589285714
 20
1119.5866071429
 30
0.0
 11
736.6589285714
 21
1119.5866071429
 31
0.0
  0
LINE
  5
89
  8
0
  6
CONTINUOUS
 62
     7
 10
746.1589285714
 20
1015.5866071429
 30
0.0
 11
714.1589285714
 21
1015.5866071429
 31
0.0
  0
LINE
  5
8A
  8
0
  6
CONTINUOUS
 62
     7
 10
430.6589285714
 20
1089.5866071429
 30
0.0
 11
428.1589285714
 21
1089.5866071429
 31
0.0
  0
LINE
  5
8B
  8
0
  6
CONTINUOUS
 62
     7
 10
428.1589285714
 20
1100.5866071429
 30
0.0
 11
430.6589285714
 21
1100.5866071429
 31
0.0
  0
LINE
  5
8C
  8
0
  6
CONTINUOUS
 62
     7
 10
728.1589285714
 20
1089.5866071429
 30
0.0
 11
725.6589285714
 21
1089.5866071429
 31
0.0
  0
LINE
  5
8D
  8
0
  6
CONTINUOUS
 62
     7
 10
725.6589285714
 20
1100.5866071429
 30
0.0
 11
728.1589285714
 21
1100.5866071429
 31
0.0
  0
ARC
  5
8E
  8
0
  6
CONTINUOUS
 62
     7
 10
430.6589285714
 20
1095.0866071429
 30
0.0
 40
5.5
 50
270.0
 51
90.0
  0
ARC
  5
8F
  8
0
  6
CONTINUOUS
 62
     7
 10
428.1589285714
 20
1095.0866071429
 30
0.0
 40
5.5
 50
90.0
 51
270.0
  0
ARC
  5
90
  8
0
  6
CONTINUOUS
 62
     7
 10
725.6589285714
 20
1095.0866071429
 30
0.0
 40
5.5
 50
90.0
 51
270.0
  0
ARC
  5
91
  8
0
  6
CONTINUOUS
 62
     7
 10
728.1589285714
 20
1095.0866071429
 30
0.0
 40
5.5
 50
270.0
 51
90.0
  0
LINE
  5
92
  8
0
  6
CENTERX2
 62
     7
 10
578.1589285714
 20
1153.6743439875
 30
0.0
 11
578.1589285714
 21
1015.5866071429
 31
0.0
  0
LINE
  5
93
  8
0
  6
CONTINUOUS
 62
     7
 10
748.1589285714
 20
767.3207658382
 30
0.0
 11
736.6589285714
 21
767.3207658382
 31
0.0
  0
LINE
  5
94
  8
0
  6
CONTINUOUS
 62
     7
 10
419.6589285714
 20
767.3207658382
 30
0.0
 11
408.1589285714
 21
767.3207658382
 31
0.0
  0
LINE
  5
95
  8
0
  6
CONTINUOUS
 62
     7
 10
408.1589285714
 20
747.3207658382
 30
0.0
 11
419.6589285714
 21
747.3207658382
 31
0.0
  0
LINE
  5
96
  8
0
  6
CONTINUOUS
 62
     7
 10
736.6589285714
 20
747.3207658382
 30
0.0
 11
748.1589285714
 21
747.3207658382
 31
0.0
  0
LINE
  5
97
  8
0
  6
CONTINUOUS
 62
     7
 10
404.1589285714
 20
724.9941304505
 30
0.0
 11
408.1589285714
 21
724.9941304505
 31
0.0
  0
LINE
  5
98
  8
0
  6
CONTINUOUS
 62
     7
 10
748.1589285714
 20
724.9941304505
 30
0.0
 11
752.1589285714
 21
724.9941304505
 31
0.0
  0
LINE
  5
99
  8
0
  6
CONTINUOUS
 62
     7
 10
736.6589285714
 20
813.8207658382
 30
0.0
 11
736.6589285714
 21
534.4810198761
 31
0.0
  0
LINE
  5
9A
  8
0
  6
CONTINUOUS
 62
     7
 10
728.6589285714
 20
542.4810198761
 30
0.0
 11
736.6589285714
 21
534.4810198761
 31
0.0
  0
LINE
  5
9B
  8
0
  6
CONTINUOUS
 62
     7
 10
736.6589285714
 20
813.8207658382
 30
0.0
 11
728.6589285714
 21
805.8207658382
 31
0.0
  0
LINE
  5
9C
  8
0
  6
CONTINUOUS
 62
     7
 10
419.6589285714
 20
813.8207658382
 30
0.0
 11
736.6589285714
 21
813.8207658382
 31
0.0
  0
LINE
  5
9D
  8
0
  6
CONTINUOUS
 62
     7
 10
419.6589285714
 20
813.8207658382
 30
0.0
 11
427.6589285714
 21
805.8207658382
 31
0.0
  0
LINE
  5
9E
  8
0
  6
CONTINUOUS
 62
     7
 10
419.6589285714
 20
534.4810198761
 30
0.0
 11
419.6589285714
 21
813.8207658382
 31
0.0
  0
LINE
  5
9F
  8
0
  6
CONTINUOUS
 62
     7
 10
427.6589285714
 20
542.4810198761
 30
0.0
 11
419.6589285714
 21
534.4810198761
 31
0.0
  0
LINE
  5
A0
  8
0
  6
CONTINUOUS
 62
     7
 10
736.6589285714
 20
534.4810198761
 30
0.0
 11
419.6589285714
 21
534.4810198761
 31
0.0
  0
LINE
  5
A1
  8
0
  6
CONTINUOUS
 62
     7
 10
442.1589285714
 20
839.3207658382
 30
0.0
 11
452.1589285714
 21
839.3207658382
 31
0.0
  0
LINE
  5
A2
  8
0
  6
CONTINUOUS
 62
     7
 10
452.1589285714
 20
839.3207658382
 30
0.0
 11
452.1589285714
 21
835.3207658382
 31
0.0
  0
LINE
  5
A3
  8
0
  6
CONTINUOUS
 62
     7
 10
452.1589285714
 20
835.3207658382
 30
0.0
 11
442.1589285714
 21
835.3207658382
 31
0.0
  0
ARC
  5
A4
  8
0
  6
CONTINUOUS
 62
     7
 10
746.1589285714
 20
833.3207658382
 30
0.0
 40
6.000000000000114
 50
0.0
 51
90.0
  0
LINE
  5
A5
  8
0
  6
CONTINUOUS
 62
     7
 10
752.1589285714
 20
833.3207658382
 30
0.0
 11
752.1589285714
 21
808.3207658382
 31
0.0
  0
LINE
  5
A6
  8
0
  6
CONTINUOUS
 62
     7
 10
748.1589285714
 20
808.3207658382
 30
0.0
 11
748.1589285714
 21
833.3207658382
 31
0.0
  0
ARC
  5
A7
  8
0
  6
CONTINUOUS
 62
     7
 10
746.1589285714
 20
833.3207658382
 30
0.0
 40
1.999999999999886
 50
0.0
 51
90.0
  0
LINE
  5
A8
  8
0
  6
CONTINUOUS
 62
     7
 10
746.1589285714
 20
835.3207658382
 30
0.0
 11
714.1589285714
 21
835.3207658382
 31
0.0
  0
LINE
  5
A9
  8
0
  6
CONTINUOUS
 62
     7
 10
714.1589285714
 20
839.3207658382
 30
0.0
 11
746.1589285714
 21
839.3207658382
 31
0.0
  0
ARC
  5
AA
  8
0
  6
CONTINUOUS
 62
     7
 10
410.1589285714
 20
833.3207658382
 30
0.0
 40
2.000000000000114
 50
90.0
 51
180.0
  0
LINE
  5
AB
  8
0
  6
CONTINUOUS
 62
     7
 10
408.1589285714
 20
833.3207658382
 30
0.0
 11
408.1589285714
 21
808.3207658382
 31
0.0
  0
LINE
  5
AC
  8
0
  6
CONTINUOUS
 62
     7
 10
404.1589285714
 20
833.3207658382
 30
0.0
 11
404.1589285714
 21
808.3207658382
 31
0.0
  0
ARC
  5
AD
  8
0
  6
CONTINUOUS
 62
     7
 10
410.1589285714
 20
833.3207658382
 30
0.0
 40
6.000000000000114
 50
90.0
 51
180.0
  0
LINE
  5
AE
  8
0
  6
CONTINUOUS
 62
     7
 10
442.1589285714
 20
835.3207658382
 30
0.0
 11
410.1589285714
 21
835.3207658382
 31
0.0
  0
LINE
  5
AF
  8
0
  6
CONTINUOUS
 62
     7
 10
410.1589285714
 20
839.3207658382
 30
0.0
 11
442.1589285714
 21
839.3207658382
 31
0.0
  0
LINE
  5
B0
  8
0
  6
CONTINUOUS
 62
     7
 10
704.1589285714
 20
835.3207658382
 30
0.0
 11
704.1589285714
 21
839.3207658382
 31
0.0
  0
LINE
  5
B1
  8
0
  6
CONTINUOUS
 62
     7
 10
704.1589285714
 20
839.3207658382
 30
0.0
 11
714.1589285714
 21
839.3207658382
 31
0.0
  0
LINE
  5
B2
  8
0
  6
CONTINUOUS
 62
     7
 10
714.1589285714
 20
835.3207658382
 30
0.0
 11
704.1589285714
 21
835.3207658382
 31
0.0
  0
LINE
  5
B3
  8
0
  6
CONTINUOUS
 62
     7
 10
408.1589285714
 20
808.3207658382
 30
0.0
 11
408.1589285714
 21
751.3378950145
 31
0.0
  0
LINE
  5
B4
  8
0
  6
CONTINUOUS
 62
     7
 10
404.1589285714
 20
808.3207658382
 30
0.0
 11
404.1589285714
 21
751.3378950145
 31
0.0
  0
LINE
  5
B5
  8
0
  6
CONTINUOUS
 62
     7
 10
752.1589285714
 20
808.3207658382
 30
0.0
 11
752.1589285714
 21
751.3378950145
 31
0.0
  0
LINE
  5
B6
  8
0
  6
CONTINUOUS
 62
     7
 10
748.1589285714
 20
751.3378950145
 30
0.0
 11
748.1589285714
 21
808.3207658382
 31
0.0
  0
LINE
  5
B7
  8
0
  6
CONTINUOUS
 62
     7
 10
752.1589285714
 20
751.3378950145
 30
0.0
 11
752.1589285714
 21
733.8679130764
 31
0.0
  0
LINE
  5
B8
  8
0
  6
CONTINUOUS
 62
     7
 10
748.1589285714
 20
733.8679130764
 30
0.0
 11
748.1589285714
 21
751.3378950145
 31
0.0
  0
LINE
  5
B9
  8
0
  6
CONTINUOUS
 62
     7
 10
408.1589285714
 20
751.3378950145
 30
0.0
 11
408.1589285714
 21
733.8679130764
 31
0.0
  0
LINE
  5
BA
  8
0
  6
CONTINUOUS
 62
     7
 10
404.1589285714
 20
751.3378950145
 30
0.0
 11
404.1589285714
 21
733.8679130764
 31
0.0
  0
LINE
  5
BB
  8
0
  6
CONTINUOUS
 62
     7
 10
752.1589285714
 20
733.8679130764
 30
0.0
 11
752.1589285714
 21
725.1322038088
 31
0.0
  0
LINE
  5
BC
  8
0
  6
CONTINUOUS
 62
     7
 10
748.1589285714
 20
725.1322038088
 30
0.0
 11
748.1589285714
 21
733.8679130764
 31
0.0
  0
LINE
  5
BD
  8
0
  6
CONTINUOUS
 62
     7
 10
408.1589285714
 20
733.8679130764
 30
0.0
 11
408.1589285714
 21
725.1322038088
 31
0.0
  0
LINE
  5
BE
  8
0
  6
CONTINUOUS
 62
     7
 10
404.1589285714
 20
733.8679130764
 30
0.0
 11
404.1589285714
 21
725.1322038088
 31
0.0
  0
LINE
  5
BF
  8
0
  6
CONTINUOUS
 62
     7
 10
408.1589285714
 20
725.1322038088
 30
0.0
 11
408.1589285714
 21
724.9941304505
 31
0.0
  0
LINE
  5
C0
  8
0
  6
CONTINUOUS
 62
     7
 10
404.1589285714
 20
725.1322038088
 30
0.0
 11
404.1589285714
 21
724.9941304505
 31
0.0
  0
LINE
  5
C1
  8
0
  6
CONTINUOUS
 62
     7
 10
752.1589285714
 20
725.1322038088
 30
0.0
 11
752.1589285714
 21
724.9941304505
 31
0.0
  0
LINE
  5
C2
  8
0
  6
CONTINUOUS
 62
     7
 10
748.1589285714
 20
724.9941304505
 30
0.0
 11
748.1589285714
 21
725.1322038088
 31
0.0
  0
LINE
  5
C3
  8
0
  6
CENTERX2
 62
     7
 10
578.1589285714
 20
843.3207658382
 30
0.0
 11
578.1589285714
 21
501.4074304164
 31
0.0
  0
LINE
  5
C4
  8
0
  6
CONTINUOUS
 62
     7
 10
729.8690151334
 20
384.0227381373
 30
0.0
 11
426.4488420095
 21
384.0227381373
 31
0.0
  0
LINE
  5
C5
  8
0
  6
CONTINUOUS
 62
     7
 10
422.7051461107
 20
271.2224574861
 30
0.0
 11
733.6127110322
 21
271.2224574861
 31
0.0
  0
LINE
  5
C6
  8
0
  6
CONTINUOUS
 62
     7
 10
748.1589285714
 20
312.0091586954
 30
0.0
 11
736.1589285714
 21
312.0091586954
 31
0.0
  0
LINE
  5
C7
  8
0
  6
CONTINUOUS
 62
     7
 10
420.1589285714
 20
312.0091586954
 30
0.0
 11
408.1589285714
 21
312.0091586954
 31
0.0
  0
LINE
  5
C8
  8
0
  6
CONTINUOUS
 62
     7
 10
408.1589285714
 20
292.0091586954
 30
0.0
 11
420.1589285714
 21
292.0091586954
 31
0.0
  0
LINE
  5
C9
  8
0
  6
CONTINUOUS
 62
     7
 10
736.1589285714
 20
292.0091586954
 30
0.0
 11
748.1589285714
 21
292.0091586954
 31
0.0
  0
LINE
  5
CA
  8
0
  6
CONTINUOUS
 62
     7
 10
748.1589285714
 20
269.6825233076
 30
0.0
 11
752.1589285714
 21
269.6825233076
 31
0.0
  0
LINE
  5
CB
  8
0
  6
CONTINUOUS
 62
     7
 10
404.1589285714
 20
269.6825233076
 30
0.0
 11
408.1589285714
 21
269.6825233076
 31
0.0
  0
ARC
  5
CC
  8
0
  6
CONTINUOUS
 62
     7
 10
732.7418994712
 20
313.1871372602
 30
0.0
 40
3.4170341275664
 50
331.9301926246
 51
0.0982837009
  0
ARC
  5
CD
  8
0
  6
CONTINUOUS
 62
     7
 10
423.5759576717
 20
313.1871372602
 30
0.0
 40
3.417034127566863
 50
179.9017162991
 51
208.0698073754
  0
LINE
  5
CE
  8
0
  6
CONTINUOUS
 62
     7
 10
420.1589285714
 20
344.9298174313
 30
0.0
 11
420.1589285714
 21
313.1929987494
 31
0.0
  0
LINE
  5
CF
  8
0
  6
CONTINUOUS
 62
     7
 10
736.1589285714
 20
344.9298174313
 30
0.0
 11
736.1589285714
 21
313.1929987494
 31
0.0
  0
LINE
  5
D0
  8
0
  6
CONTINUOUS
 62
     7
 10
420.1589285714
 20
347.5023776849
 30
0.0
 11
420.1589285714
 21
344.9298174313
 31
0.0
  0
LINE
  5
D1
  8
0
  6
CONTINUOUS
 62
     7
 10
736.1589285714
 20
347.5023776849
 30
0.0
 11
736.1589285714
 21
344.9298174313
 31
0.0
  0
LINE
  5
D2
  8
0
  6
CONTINUOUS
 62
     7
 10
420.1589285714
 20
352.4448471189
 30
0.0
 11
736.1589285714
 21
352.4448471189
 31
0.0
  0
LINE
  5
D3
  8
0
  6
CONTINUOUS
 62
     7
 10
420.1589285714
 20
352.4448471189
 30
0.0
 11
420.1589285714
 21
347.5023776849
 31
0.0
  0
LINE
  5
D4
  8
0
  6
CONTINUOUS
 62
     7
 10
736.1589285714
 20
352.4448471189
 30
0.0
 11
736.1589285714
 21
347.5023776849
 31
0.0
  0
LINE
  5
D5
  8
0
  6
CONTINUOUS
 62
     7
 10
736.6589285714
 20
352.520477529
 30
0.0
 11
419.6589285714
 21
352.520477529
 31
0.0
  0
LINE
  5
D6
  8
0
  6
CONTINUOUS
 62
     7
 10
419.6589285714
 20
377.2328246992
 30
0.0
 11
419.6589285714
 21
352.520477529
 31
0.0
  0
LINE
  5
D7
  8
0
  6
CONTINUOUS
 62
     7
 10
736.6589285714
 20
377.2328246992
 30
0.0
 11
736.6589285714
 21
352.520477529
 31
0.0
  0
LINE
  5
D8
  8
0
  6
CONTINUOUS
 62
     7
 10
419.6589285714
 20
352.520477529
 30
0.0
 11
419.6589285714
 21
312.0091586954
 31
0.0
  0
LINE
  5
D9
  8
0
  6
CONTINUOUS
 62
     7
 10
736.6589285714
 20
352.520477529
 30
0.0
 11
736.6589285714
 21
312.0091586954
 31
0.0
  0
ARC
  5
DA
  8
0
  6
CONTINUOUS
 62
     7
 10
730.0187923729
 20
377.3826019387
 30
0.0
 40
6.641825197715814
 50
358.7078354318
 51
91.2921645682
  0
ARC
  5
DB
  8
0
  6
CONTINUOUS
 62
     7
 10
426.3076311775
 20
377.3740355312
 30
0.0
 40
6.650202015227427
 50
88.783286162
 51
181.216713838
  0
ARC
  5
DC
  8
0
  6
CONTINUOUS
 62
     7
 10
733.643473091
 20
273.7256961553
 30
0.0
 40
2.515822620419858
 50
258.8955114441
 51
0.9788558363
  0
ARC
  5
DD
  8
0
  6
CONTINUOUS
 62
     7
 10
732.5579615296
 20
313.273100823
 30
0.0
 40
3.619802065772155
 50
279.5566138901
 51
332.0995467198
  0
LINE
  5
DE
  8
0
  6
CONTINUOUS
 62
     7
 10
736.1589285714
 20
313.1929987494
 30
0.0
 11
736.1589285714
 21
273.7686750253
 31
0.0
  0
ARC
  5
DF
  8
0
  6
CONTINUOUS
 62
     7
 10
423.7598956133
 20
313.273100823
 30
0.0
 40
3.619802065772361
 50
207.9004532803
 51
260.4433861099
  0
ARC
  5
E0
  8
0
  6
CONTINUOUS
 62
     7
 10
422.6790661343
 20
273.7312884839
 30
0.0
 40
2.520414864522935
 50
179.1500726218
 51
280.9755600978
  0
LINE
  5
E1
  8
0
  6
CONTINUOUS
 62
     7
 10
420.1589285714
 20
273.7686750253
 30
0.0
 11
420.1589285714
 21
313.1929987494
 31
0.0
  0
ARC
  5
E2
  8
0
  6
CONTINUOUS
 62
     7
 10
746.1589285714
 20
378.0091586954
 30
0.0
 40
6.0
 50
0.0
 51
90.0
  0
LINE
  5
E3
  8
0
  6
CONTINUOUS
 62
     7
 10
752.1589285714
 20
378.0091586954
 30
0.0
 11
752.1589285714
 21
353.0091586954
 31
0.0
  0
LINE
  5
E4
  8
0
  6
CONTINUOUS
 62
     7
 10
748.1589285714
 20
353.0091586954
 30
0.0
 11
748.1589285714
 21
378.0091586954
 31
0.0
  0
ARC
  5
E5
  8
0
  6
CONTINUOUS
 62
     7
 10
746.1589285714
 20
378.0091586954
 30
0.0
 40
2.0
 50
0.0
 51
90.0
  0
LINE
  5
E6
  8
0
  6
CONTINUOUS
 62
     7
 10
746.1589285714
 20
380.0091586954
 30
0.0
 11
736.11813672
 21
380.0091586954
 31
0.0
  0
LINE
  5
E7
  8
0
  6
CONTINUOUS
 62
     7
 10
730.327525708
 20
384.0091586954
 30
0.0
 11
746.1589285714
 21
384.0091586954
 31
0.0
  0
ARC
  5
E8
  8
0
  6
CONTINUOUS
 62
     7
 10
410.1589285714
 20
378.0091586954
 30
0.0
 40
2.0
 50
90.0
 51
180.0
  0
LINE
  5
E9
  8
0
  6
CONTINUOUS
 62
     7
 10
408.1589285714
 20
378.0091586954
 30
0.0
 11
408.1589285714
 21
353.0091586954
 31
0.0
  0
LINE
  5
EA
  8
0
  6
CONTINUOUS
 62
     7
 10
404.1589285714
 20
378.0091586954
 30
0.0
 11
404.1589285714
 21
353.0091586954
 31
0.0
  0
ARC
  5
EB
  8
0
  6
CONTINUOUS
 62
     7
 10
410.1589285714
 20
378.0091586954
 30
0.0
 40
6.000000000000057
 50
90.0
 51
180.0
  0
LINE
  5
EC
  8
0
  6
CONTINUOUS
 62
     7
 10
410.1589285714
 20
384.0091586954
 30
0.0
 11
425.9903314349
 21
384.0091586954
 31
0.0
  0
LINE
  5
ED
  8
0
  6
CONTINUOUS
 62
     7
 10
420.1997204229
 20
380.0091586954
 30
0.0
 11
410.1589285714
 21
380.0091586954
 31
0.0
  0
LINE
  5
EE
  8
0
  6
CONTINUOUS
 62
     7
 10
408.1589285714
 20
353.0091586954
 30
0.0
 11
408.1589285714
 21
296.0262878716
 31
0.0
  0
LINE
  5
EF
  8
0
  6
CONTINUOUS
 62
     7
 10
404.1589285714
 20
353.0091586954
 30
0.0
 11
404.1589285714
 21
296.0262878716
 31
0.0
  0
LINE
  5
F0
  8
0
  6
CONTINUOUS
 62
     7
 10
752.1589285714
 20
353.0091586954
 30
0.0
 11
752.1589285714
 21
296.0262878716
 31
0.0
  0
LINE
  5
F1
  8
0
  6
CONTINUOUS
 62
     7
 10
748.1589285714
 20
296.0262878716
 30
0.0
 11
748.1589285714
 21
353.0091586954
 31
0.0
  0
LINE
  5
F2
  8
0
  6
CONTINUOUS
 62
     7
 10
752.1589285714
 20
296.0262878716
 30
0.0
 11
752.1589285714
 21
278.5563059336
 31
0.0
  0
LINE
  5
F3
  8
0
  6
CONTINUOUS
 62
     7
 10
748.1589285714
 20
278.5563059336
 30
0.0
 11
748.1589285714
 21
296.0262878716
 31
0.0
  0
LINE
  5
F4
  8
0
  6
CONTINUOUS
 62
     7
 10
408.1589285714
 20
296.0262878716
 30
0.0
 11
408.1589285714
 21
278.5563059336
 31
0.0
  0
LINE
  5
F5
  8
0
  6
CONTINUOUS
 62
     7
 10
404.1589285714
 20
296.0262878716
 30
0.0
 11
404.1589285714
 21
278.5563059336
 31
0.0
  0
LINE
  5
F6
  8
0
  6
CONTINUOUS
 62
     7
 10
752.1589285714
 20
278.5563059336
 30
0.0
 11
752.1589285714
 21
269.8205966659
 31
0.0
  0
LINE
  5
F7
  8
0
  6
CONTINUOUS
 62
     7
 10
748.1589285714
 20
269.8205966659
 30
0.0
 11
748.1589285714
 21
278.5563059336
 31
0.0
  0
LINE
  5
F8
  8
0
  6
CONTINUOUS
 62
     7
 10
408.1589285714
 20
278.5563059336
 30
0.0
 11
408.1589285714
 21
269.8205966659
 31
0.0
  0
LINE
  5
F9
  8
0
  6
CONTINUOUS
 62
     7
 10
404.1589285714
 20
278.5563059336
 30
0.0
 11
404.1589285714
 21
269.8205966659
 31
0.0
  0
LINE
  5
FA
  8
0
  6
CONTINUOUS
 62
     7
 10
752.1589285714
 20
269.8205966659
 30
0.0
 11
752.1589285714
 21
269.6825233076
 31
0.0
  0
LINE
  5
FB
  8
0
  6
CONTINUOUS
 62
     7
 10
748.1589285714
 20
269.6825233076
 30
0.0
 11
748.1589285714
 21
269.8205966659
 31
0.0
  0
LINE
  5
FC
  8
0
  6
CONTINUOUS
 62
     7
 10
408.1589285714
 20
269.8205966659
 30
0.0
 11
408.1589285714
 21
269.6825233076
 31
0.0
  0
LINE
  5
FD
  8
0
  6
CONTINUOUS
 62
     7
 10
404.1589285714
 20
269.8205966659
 30
0.0
 11
404.1589285714
 21
269.6825233076
 31
0.0
  0
LINE
  5
FE
  8
0
  6
CENTERX2
 62
     7
 10
578.1589285714
 20
402.5536514273
 30
0.0
 11
578.1589285714
 21
259.8205966659
 31
0.0
  0
LINE
  5
FF
  8
0
  6
CONTINUOUS
 62
     7
 10
1016.7328055904
 20
1127.5866071429
 30
0.0
 11
1280.0725515525
 21
1127.5866071429
 31
0.0
  0
ARC
  5
100
  8
0
  6
CONTINUOUS
 62
     7
 10
1280.0725515525
 20
1119.5866071429
 30
0.0
 40
7.999999999999545
 50
360.0
 51
90.0
  0
ARC
  5
101
  8
0
  6
CONTINUOUS
 62
     7
 10
1016.7328055904
 20
1119.5866071429
 30
0.0
 40
8.000000000000114
 50
90.0
 51
180.0
  0
LINE
  5
102
  8
0
  6
CONTINUOUS
 62
     7
 10
1288.0725515525
 20
1119.5866071429
 30
0.0
 11
1288.0725515525
 21
1094.5866071429
 31
0.0
  0
LINE
  5
103
  8
0
  6
CONTINUOUS
 62
     7
 10
1288.0725515525
 20
1094.5866071429
 30
0.0
 11
1087.4066510559
 21
1094.5866071429
 31
0.0
  0
ARC
  5
104
  8
0
  6
CONTINUOUS
 62
     7
 10
1266.4067440152
 20
1057.5866071429
 30
0.0
 40
3.000000000000049
 50
270.0
 51
330.0
  0
LINE
  5
105
  8
0
  6
CONTINUOUS
 62
     7
 10
1266.4067440152
 20
1054.5866071429
 30
0.0
 11
1094.0433012805
 21
1054.5866071429
 31
0.0
  0
LINE
  5
106
  8
0
  6
CONTINUOUS
 62
     7
 10
1269.8708456303
 20
1057.5866071429
 30
0.0
 11
1269.0048202266
 21
1056.0866071429
 31
0.0
  0
LINE
  5
107
  8
0
  6
CONTINUOUS
 62
     7
 10
1287.5725515525
 20
1094.5866071429
 30
0.0
 11
1287.5725515525
 21
1089.5866071429
 31
0.0
  0
ARC
  5
108
  8
0
  6
CONTINUOUS
 62
     7
 10
1282.5725515525
 20
1089.5866071429
 30
0.0
 40
5.000000000000016
 50
330.0
 51
0.0
  0
LINE
  5
109
  8
0
  6
CONTINUOUS
 62
     7
 10
1286.9026785714
 20
1087.0866071429
 30
0.0
 11
1269.8708456303
 21
1057.5866071429
 31
0.0
  0
LINE
  5
10A
  8
0
  6
CONTINUOUS
 62
     7
 10
983.2328055904
 20
1015.5866071429
 30
0.0
 11
983.2328055904
 21
1119.5866071429
 31
0.0
  0
LINE
  5
10B
  8
0
  6
CONTINUOUS
 62
     7
 10
983.2328055904
 20
1119.5866071429
 30
0.0
 11
989.2328055904
 21
1119.5866071429
 31
0.0
  0
LINE
  5
10C
  8
0
  6
CONTINUOUS
 62
     7
 10
989.2328055904
 20
1015.5866071429
 30
0.0
 11
983.2328055904
 21
1015.5866071429
 31
0.0
  0
ARC
  5
10D
  8
0
  6
CONTINUOUS
 62
     7
 10
1014.2328055904
 20
939.5866071429
 30
0.0
 40
180.0000000000001
 50
71.5442898138
 51
90.0
  0
ARC
  5
10E
  8
0
  6
CONTINUOUS
 62
     7
 10
1062.9848172951
 20
1085.6661791396
 30
0.0
 40
26.00000000000017
 50
8.7
 51
71.5442898138
  0
LINE
  5
10F
  8
0
  6
CONTINUOUS
 62
     7
 10
1088.6856583521
 20
1089.598960466
 30
0.0
 11
1097.4213676198
 21
1032.5108447604
 31
0.0
  0
ARC
  5
110
  8
0
  6
CONTINUOUS
 62
     7
 10
1085.5594409781
 20
1030.6957149174
 30
0.0
 40
12.00000000000009
 50
287.3928139369
 51
8.7
  0
ARC
  5
111
  8
0
  6
CONTINUOUS
 62
     7
 10
1065.2328055904
 20
1095.5866071429
 30
0.0
 40
80.00000000000004
 50
270.0
 51
287.3928139369
  0
LINE
  5
112
  8
0
  6
CONTINUOUS
 62
     7
 10
989.2328055904
 20
1119.5866071429
 30
0.0
 11
1014.2328055904
 21
1119.5866071429
 31
0.0
  0
LINE
  5
113
  8
0
  6
CONTINUOUS
 62
     7
 10
1065.2328055904
 20
1015.5866071429
 30
0.0
 11
989.2328055904
 21
1015.5866071429
 31
0.0
  0
ARC
  5
114
  8
0
  6
CONTINUOUS
 62
     7
 10
1564.5031049835
 20
1023.2916991823
 30
0.0
 40
8.000000000003444
 50
254.3944482475
 51
278.7
  0
LINE
  5
115
  8
0
  6
CONTINUOUS
 62
     7
 10
1541.674793079
 20
1119.5866071429
 30
0.0
 11
1516.7621679111
 21
1282.3913416576
 31
0.0
  0
ARC
  5
116
  8
0
  6
CONTINUOUS
 62
     7
 10
1524.6701190056
 20
1283.6014282196
 30
0.0
 40
7.999999999999694
 50
98.7
 51
188.7
  0
LINE
  5
117
  8
0
  6
CONTINUOUS
 62
     7
 10
1548.1723796138
 20
1295.2908998202
 30
0.0
 11
1575.3870936882
 21
1117.4419469338
 31
0.0
  0
LINE
  5
118
  8
0
  6
CONTINUOUS
 62
     7
 10
1567.0388814069
 20
1015.5866071429
 30
0.0
 11
1565.7131915455
 21
1015.3837480878
 31
0.0
  0
LINE
  5
119
  8
0
  6
CONTINUOUS
 62
     7
 10
1523.4600324436
 20
1291.5093793141
 30
0.0
 11
1548.1723796138
 21
1295.2908998202
 31
0.0
  0
LINE
  5
11A
  8
0
  6
CONTINUOUS
 62
     7
 10
1548.248010024
 20
1294.7966528768
 30
0.0
 11
1553.190479458
 21
1295.5529569781
 31
0.0
  0
ARC
  5
11B
  8
0
  6
CONTINUOUS
 62
     7
 10
1553.9467835592
 20
1290.610487544
 30
0.0
 40
5.000000000000218
 50
68.7
 51
98.7
  0
LINE
  5
11C
  8
0
  6
CONTINUOUS
 62
     7
 10
1555.7630397116
 20
1295.268943682
 30
0.0
 11
1587.4998583934
 21
1282.8952751358
 31
0.0
  0
ARC
  5
11D
  8
0
  6
CONTINUOUS
 62
     7
 10
1588.0238412452
 20
1279.471031866
 30
0.0
 40
2.999999999998953
 50
8.7
 51
68.7
  0
LINE
  5
11E
  8
0
  6
CONTINUOUS
 62
     7
 10
1590.9893229056
 20
1279.9248143267
 30
0.0
 11
1618.6469552332
 21
1099.1813776936
 31
0.0
  0
LINE
  5
11F
  8
0
  6
CONTINUOUS
 62
     7
 10
1587.4998583934
 20
1282.8952751358
 30
0.0
 11
1589.1135949366
 21
1282.2661055487
 31
0.0
  0
LINE
  5
120
  8
0
  6
CONTINUOUS
 62
     7
 10
1516.6836984475
 20
1015.5866071429
 30
0.0
 11
1516.6836984475
 21
1119.5866071429
 31
0.0
  0
LINE
  5
121
  8
0
  6
CONTINUOUS
 62
     7
 10
1516.6836984475
 20
1119.5866071429
 30
0.0
 11
1522.6836984475
 21
1119.5866071429
 31
0.0
  0
LINE
  5
122
  8
0
  6
CONTINUOUS
 62
     7
 10
1522.6836984475
 20
1015.5866071429
 30
0.0
 11
1516.6836984475
 21
1015.5866071429
 31
0.0
  0
ARC
  5
123
  8
0
  6
CONTINUOUS
 62
     7
 10
1547.6836984475
 20
939.5866071429
 30
0.0
 40
180.0
 50
71.5442898138
 51
90.0
  0
ARC
  5
124
  8
0
  6
CONTINUOUS
 62
     7
 10
1596.4357101522
 20
1085.6661791396
 30
0.0
 40
26.00000000000011
 50
8.7
 51
71.5442898138
  0
LINE
  5
125
  8
0
  6
CONTINUOUS
 62
     7
 10
1622.1365512093
 20
1089.598960466
 30
0.0
 11
1630.8722604769
 21
1032.5108447604
 31
0.0
  0
ARC
  5
126
  8
0
  6
CONTINUOUS
 62
     7
 10
1619.0103338352
 20
1030.6957149174
 30
0.0
 40
12.00000000000016
 50
287.3928139369
 51
8.7
  0
ARC
  5
127
  8
0
  6
CONTINUOUS
 62
     7
 10
1598.6836984475
 20
1095.5866071429
 30
0.0
 40
80.00000000000018
 50
270.0
 51
287.3928139369
  0
LINE
  5
128
  8
0
  6
CONTINUOUS
 62
     7
 10
1522.6836984475
 20
1119.5866071429
 30
0.0
 11
1547.6836984475
 21
1119.5866071429
 31
0.0
  0
LINE
  5
129
  8
0
  6
CONTINUOUS
 62
     7
 10
1598.6836984475
 20
1015.5866071429
 30
0.0
 11
1522.6836984475
 21
1015.5866071429
 31
0.0
  0
ENDSEC
  0
EOF
