  0
SECTION
  2
HEADER
  9
$ACADVER
  1
AC1009
  9
$DWGCODEPAGE
  3
ansi_1252
  9
$INSBASE
 10
0.0
 20
0.0
 30
0.0
  9
$EXTMIN
 10
0.0
 20
0.0
 30
0.0
  9
$EXTMAX
 10
2100.0
 20
1485.0
 30
0.0
  9
$LIMMIN
 10
0.0
 20
0.0
  9
$LIMMAX
 10
2100.0
 20
1485.0
  9
$ORTHOMODE
 70
     0
  9
$REGENMODE
 70
     1
  9
$FILLMODE
 70
     1
  9
$QTEXTMODE
 70
     0
  9
$MIRRTEXT
 70
     1
  9
$DRAGMODE
 70
     2
  9
$LTSCALE
 40
5.0
  9
$OSMODE
 70
    37
  9
$ATTMODE
 70
     1
  9
$TEXTSIZE
 40
17.5
  9
$TRACEWID
 40
1.0
  9
$TEXTSTYLE
  7
STANDARD
  9
$CLAYER
  8
0
  9
$CELTYPE
  6
BYLAYER
  9
$CECOLOR
 62
   256
  9
$DIMSCALE
 40
1.0
  9
$DIMASZ
 40
20.0
  9
$DIMEXO
 40
0.0
  9
$DIMDLI
 40
3.75
  9
$DIMRND
 40
0.0
  9
$DIMDLE
 40
0.0
  9
$DIMEXE
 40
10.0
  9
$DIMTP
 40
0.0
  9
$DIMTM
 40
0.0
  9
$DIMTXT
 40
17.5
  9
$DIMCEN
 40
2.5
  9
$DIMTSZ
 40
0.0
  9
$DIMTOL
 70
     0
  9
$DIMLIM
 70
     0
  9
$DIMTIH
 70
     1
  9
$DIMTOH
 70
     1
  9
$DIMSE1
 70
     0
  9
$DIMSE2
 70
     0
  9
$DIMTAD
 70
     1
  9
$DIMZIN
 70
     0
  9
$DIMBLK
  1

  9
$DIMASO
 70
     1
  9
$DIMSHO
 70
     1
  9
$DIMPOST
  1

  9
$DIMAPOST
  1

  9
$DIMALT
 70
     0
  9
$DIMALTD
 70
     3
  9
$DIMALTF
 40
0.0393700787
  9
$DIMLFAC
 40
1.0
  9
$DIMTOFL
 70
     1
  9
$DIMTVP
 40
0.0
  9
$DIMTIX
 70
     0
  9
$DIMSOXD
 70
     0
  9
$DIMSAH
 70
     0
  9
$DIMBLK1
  1

  9
$DIMBLK2
  1

  9
$DIMSTYLE
  2
ISO-25
  9
$DIMCLRD
 70
     0
  9
$DIMCLRE
 70
     0
  9
$DIMCLRT
 70
     0
  9
$DIMTFAC
 40
1.0
  9
$DIMGAP
 40
7.62
  9
$LUNITS
 70
     2
  9
$LUPREC
 70
     2
  9
$SKETCHINC
 40
1.0
  9
$FILLETRAD
 40
10.0
  9
$AUNITS
 70
     0
  9
$AUPREC
 70
     2
  9
$MENU
  1
.
  9
$ELEVATION
 40
0.0
  9
$PELEVATION
 40
0.0
  9
$THICKNESS
 40
0.0
  9
$LIMCHECK
 70
     0
  9
$CHAMFERA
 40
10.0
  9
$CHAMFERB
 40
10.0
  9
$SKPOLY
 70
     0
  9
$TDCREATE
 40
2457029.547727153
  9
$TDUPDATE
 40
2457029.547727338
  9
$TDINDWG
 40
0.0000000116
  9
$TDUSRTIMER
 40
0.0000000116
  9
$USRTIMER
 70
     1
  9
$ANGBASE
 50
0.0
  9
$ANGDIR
 70
     0
  9
$PDMODE
 70
     0
  9
$PDSIZE
 40
-1.0
  9
$PLINEWID
 40
0.0
  9
$COORDS
 70
     1
  9
$SPLFRAME
 70
     0
  9
$SPLINETYPE
 70
     6
  9
$SPLINESEGS
 70
     8
  9
$ATTDIA
 70
     0
  9
$ATTREQ
 70
     1
  9
$HANDLING
 70
     1
  9
$HANDSEED
  5
117
  9
$SURFTAB1
 70
     6
  9
$SURFTAB2
 70
     6
  9
$SURFTYPE
 70
     6
  9
$SURFU
 70
     6
  9
$SURFV
 70
     6
  9
$UCSNAME
  2

  9
$UCSORG
 10
0.0
 20
0.0
 30
0.0
  9
$UCSXDIR
 10
1.0
 20
0.0
 30
0.0
  9
$UCSYDIR
 10
0.0
 20
1.0
 30
0.0
  9
$PUCSNAME
  2

  9
$PUCSORG
 10
0.0
 20
0.0
 30
0.0
  9
$PUCSXDIR
 10
1.0
 20
0.0
 30
0.0
  9
$PUCSYDIR
 10
0.0
 20
1.0
 30
0.0
  9
$USERI1
 70
     0
  9
$USERI2
 70
     0
  9
$USERI3
 70
     0
  9
$USERI4
 70
     0
  9
$USERI5
 70
     0
  9
$USERR1
 40
0.0
  9
$USERR2
 40
0.0
  9
$USERR3
 40
0.0
  9
$USERR4
 40
0.0
  9
$USERR5
 40
0.0
  9
$WORLDVIEW
 70
     1
  9
$SHADEDGE
 70
     3
  9
$SHADEDIF
 70
    70
  9
$TILEMODE
 70
     1
  9
$MAXACTVP
 70
    64
  9
$PLIMCHECK
 70
     0
  9
$PEXTMIN
 10
1.0000000000E+20
 20
1.0000000000E+20
 30
1.0000000000E+20
  9
$PEXTMAX
 10
-1.0000000000E+20
 20
-1.0000000000E+20
 30
-1.0000000000E+20
  9
$PLIMMIN
 10
0.0
 20
0.0
  9
$PLIMMAX
 10
420.0
 20
297.0
  9
$UNITMODE
 70
     0
  9
$VISRETAIN
 70
     1
  9
$PLINEGEN
 70
     0
  9
$PSLTSCALE
 70
     1
  0
ENDSEC
  0
SECTION
  2
TABLES
  0
TABLE
  2
VPORT
 70
     1
  0
VPORT
  2
*ACTIVE
 70
     0
 10
0.0
 20
0.0
 11
1.0
 21
1.0
 12
1050.0
 22
742.5
 13
0.0
 23
0.0
 14
10.0
 24
10.0
 15
10.0
 25
10.0
 16
0.0
 26
0.0
 36
1.0
 17
0.0
 27
0.0
 37
0.0
 40
1485.0
 41
1.4141414141
 42
50.0
 43
0.0
 44
0.0
 50
0.0
 51
0.0
 71
     0
 72
  2000
 73
     1
 74
     3
 75
     0
 76
     0
 77
     0
 78
     0
  0
ENDTAB
  0
TABLE
  2
LTYPE
 70
     6
  0
LTYPE
  2
CONTINUOUS
 70
     0
  3
Solid line
 72
    65
 73
     0
 40
0.0
  0
LTYPE
  2
HIDDEN
 70
     0
  3
Hidden __ __ __ __ __ __ __ __ __ __ __ __ __ __
 72
    65
 73
     2
 40
1.905
 49
1.27
 49
-0.635
  0
LTYPE
  2
PHANTOM
 70
     0
  3
Phantom ______  __  __  ______  __  __  ______
 72
    65
 73
     6
 40
12.7
 49
6.35
 49
-1.27
 49
1.27
 49
-1.27
 49
1.27
 49
-1.27
  0
LTYPE
  2
CENTER
 70
     0
  3
Center ____ _ ____ _ ____ _ ____ _ ____ _ ____
 72
    65
 73
     4
 40
10.16
 49
6.35
 49
-1.27
 49
1.27
 49
-1.27
  0
LTYPE
  2
CENTERX2
 70
     0
  3
Center (2x) ________  __  ________  __  _____
 72
    65
 73
     4
 40
20.32
 49
12.7
 49
-2.54
 49
2.54
 49
-2.54
  0
LTYPE
  2
DOT2
 70
     0
  3
Dot (.5x) ........................................
 72
    65
 73
     2
 40
0.635
 49
0.0
 49
-0.635
  0
ENDTAB
  0
TABLE
  2
LAYER
 70
     2
  0
LAYER
  2
0
 70
     0
 62
     7
  6
CONTINUOUS
  0
LAYER
  2
FORMAT
 70
     0
 62
     7
  6
CONTINUOUS
  0
ENDTAB
  0
TABLE
  2
STYLE
 70
     1
  0
STYLE
  2
STANDARD
 70
     0
 40
0.0
 41
1.0
 50
0.0
 71
     0
 42
17.5
  3
txt
  4

  0
ENDTAB
  0
TABLE
  2
VIEW
 70
     0
  0
ENDTAB
  0
TABLE
  2
UCS
 70
     0
  0
ENDTAB
  0
TABLE
  2
APPID
 70
     1
  0
APPID
  2
ACAD
 70
     0
  0
ENDTAB
  0
TABLE
  2
DIMSTYLE
 70
     1
  0
DIMSTYLE
  2
ISO-25
 70
     0
  3

  4

  5

  6

  7

 40
1.0
 41
2.5
 42
0.625
 43
3.75
 44
1.25
 45
0.0
 46
0.0
 47
0.0
 48
0.0
140
2.5
141
2.5
142
0.0
143
0.0393700787
144
1.0
145
0.0
146
1.0
147
0.625
 71
     0
 72
     0
 73
     0
 74
     0
 75
     0
 76
     0
 77
     1
 78
     8
170
     0
171
     3
172
     1
173
     0
174
     0
175
     0
176
     0
177
     0
178
     0
  0
ENDTAB
  0
ENDSEC
  0
SECTION
  2
BLOCKS
  0
BLOCK
  8
0
  2
$MODEL_SPACE
 70
     0
 10
0.0
 20
0.0
 30
0.0
  3
$MODEL_SPACE
  1

  0
ENDBLK
  5
21
  8
0
  0
BLOCK
 67
     1
  8
0
  2
$PAPER_SPACE
 70
     0
 10
0.0
 20
0.0
 30
0.0
  3
$PAPER_SPACE
  1

  0
ENDBLK
  5
1D
 67
     1
  8
0
  0
ENDSEC
  0
SECTION
  2
ENTITIES
  0
LINE
  5
45
  8
0
  6
CONTINUOUS
 62
     7
 10
2074.25
 20
25.75
 30
0.0
 11
25.75
 21
25.75
 31
0.0
  0
LINE
  5
46
  8
0
  6
CONTINUOUS
 62
     7
 10
2075.0
 20
25.0
 30
0.0
 11
2075.0
 21
1385.0
 31
0.0
  0
LINE
  5
47
  8
0
  6
CONTINUOUS
 62
     7
 10
2075.0
 20
1385.0
 30
0.0
 11
25.0
 21
1385.0
 31
0.0
  0
LINE
  5
48
  8
0
  6
CONTINUOUS
 62
     7
 10
25.75
 20
1384.25
 30
0.0
 11
25.75
 21
25.75
 31
0.0
  0
LINE
  5
49
  8
0
  6
CONTINUOUS
 62
     7
 10
781.7020073892
 20
953.4117857143
 30
0.0
 11
769.7020073892
 21
953.4117857143
 31
0.0
  0
LINE
  5
4A
  8
0
  6
CONTINUOUS
 62
     7
 10
353.7020073892
 20
953.4117857143
 30
0.0
 11
341.7020073892
 21
953.4117857143
 31
0.0
  0
LINE
  5
4B
  8
0
  6
CONTINUOUS
 62
     7
 10
341.7020073892
 20
933.4117857143
 30
0.0
 11
353.7020073892
 21
933.4117857143
 31
0.0
  0
LINE
  5
4C
  8
0
  6
CONTINUOUS
 62
     7
 10
769.7020073892
 20
933.4117857143
 30
0.0
 11
781.7020073892
 21
933.4117857143
 31
0.0
  0
LINE
  5
4D
  8
0
  6
CONTINUOUS
 62
     7
 10
781.7020073892
 20
844.4117857143
 30
0.0
 11
785.7020073892
 21
844.4117857143
 31
0.0
  0
LINE
  5
4E
  8
0
  6
CONTINUOUS
 62
     7
 10
337.7020073892
 20
844.4117857143
 30
0.0
 11
341.7020073892
 21
844.4117857143
 31
0.0
  0
LINE
  5
4F
  8
0
  6
CONTINUOUS
 62
     7
 10
361.2020073892
 20
990.4117857143
 30
0.0
 11
762.2020073892
 21
990.4117857143
 31
0.0
  0
ARC
  5
50
  8
0
  6
CONTINUOUS
 62
     7
 10
762.2020073892
 20
982.4117857143
 30
0.0
 40
7.999999999999773
 50
360.0
 51
90.0
  0
ARC
  5
51
  8
0
  6
CONTINUOUS
 62
     7
 10
361.2020073892
 20
982.4117857143
 30
0.0
 40
7.999999999999829
 50
90.0
 51
180.0
  0
LINE
  5
52
  8
0
  6
CONTINUOUS
 62
     7
 10
770.2020073892
 20
982.4117857143
 30
0.0
 11
770.2020073892
 21
960.4117857143
 31
0.0
  0
LINE
  5
53
  8
0
  6
CONTINUOUS
 62
     7
 10
770.2020073892
 20
960.4117857143
 30
0.0
 11
353.2020073892
 21
960.4117857143
 31
0.0
  0
LINE
  5
54
  8
0
  6
CONTINUOUS
 62
     7
 10
353.2020073892
 20
982.4117857143
 30
0.0
 11
353.2020073892
 21
960.4117857143
 31
0.0
  0
LINE
  5
55
  8
0
  6
CONTINUOUS
 62
     7
 10
769.7020073892
 20
960.4117857143
 30
0.0
 11
769.7020073892
 21
955.4117857143
 31
0.0
  0
LINE
  5
56
  8
0
  6
CONTINUOUS
 62
     7
 10
353.7020073892
 20
955.4117857143
 30
0.0
 11
353.7020073892
 21
960.4117857143
 31
0.0
  0
LINE
  5
57
  8
0
  6
CONTINUOUS
 62
     7
 10
769.7020073892
 20
955.4117857143
 30
0.0
 11
769.7020073892
 21
925.4117857143
 31
0.0
  0
LINE
  5
58
  8
0
  6
CONTINUOUS
 62
     7
 10
353.7020073892
 20
925.4117857143
 30
0.0
 11
353.7020073892
 21
955.4117857143
 31
0.0
  0
ARC
  5
59
  8
0
  6
CONTINUOUS
 62
     7
 10
764.7020073892
 20
925.4117857143
 30
0.0
 40
5.0
 50
270.0
 51
0.0
  0
ARC
  5
5A
  8
0
  6
CONTINUOUS
 62
     7
 10
358.7020073892
 20
925.4117857143
 30
0.0
 40
5.0
 50
180.0
 51
270.0
  0
LINE
  5
5B
  8
0
  6
CONTINUOUS
 62
     7
 10
358.7020073892
 20
920.4117857143
 30
0.0
 11
764.7020073892
 21
920.4117857143
 31
0.0
  0
LINE
  5
5C
  8
0
  6
CONTINUOUS
 62
     7
 10
785.7020073892
 20
884.1167857143
 30
0.0
 11
785.7020073892
 21
871.3932599549
 31
0.0
  0
LINE
  5
5D
  8
0
  6
CONTINUOUS
 62
     7
 10
781.7020073892
 20
871.3932599549
 30
0.0
 11
781.7020073892
 21
884.1167857143
 31
0.0
  0
LINE
  5
5E
  8
0
  6
CONTINUOUS
 62
     7
 10
337.7020073892
 20
884.1167857143
 30
0.0
 11
337.7020073892
 21
871.3932599549
 31
0.0
  0
LINE
  5
5F
  8
0
  6
CONTINUOUS
 62
     7
 10
341.7020073892
 20
884.1167857143
 30
0.0
 11
341.7020073892
 21
871.3932599549
 31
0.0
  0
LINE
  5
60
  8
0
  6
CONTINUOUS
 62
     7
 10
785.7020073892
 20
953.4960189045
 30
0.0
 11
785.7020073892
 21
884.1167857143
 31
0.0
  0
LINE
  5
61
  8
0
  6
CONTINUOUS
 62
     7
 10
781.7020073892
 20
884.1167857143
 30
0.0
 11
781.7020073892
 21
953.4960189045
 31
0.0
  0
LINE
  5
62
  8
0
  6
CONTINUOUS
 62
     7
 10
337.7020073892
 20
953.4960189045
 30
0.0
 11
337.7020073892
 21
884.1167857143
 31
0.0
  0
LINE
  5
63
  8
0
  6
CONTINUOUS
 62
     7
 10
341.7020073892
 20
953.4960189045
 30
0.0
 11
341.7020073892
 21
884.1167857143
 31
0.0
  0
LINE
  5
64
  8
0
  6
CONTINUOUS
 62
     7
 10
781.7020073892
 20
866.4117856908
 30
0.0
 11
785.7020073892
 21
866.4117857143
 31
0.0
  0
LINE
  5
65
  8
0
  6
CONTINUOUS
 62
     7
 10
785.7020073892
 20
871.3932599549
 30
0.0
 11
785.7020073892
 21
866.4117857143
 31
0.0
  0
LINE
  5
66
  8
0
  6
CONTINUOUS
 62
     7
 10
781.7020073892
 20
866.4117856908
 30
0.0
 11
781.7020073892
 21
871.3932599549
 31
0.0
  0
LINE
  5
67
  8
0
  6
CONTINUOUS
 62
     7
 10
337.7020073892
 20
866.4117857143
 30
0.0
 11
341.7020073892
 21
866.4117856908
 31
0.0
  0
LINE
  5
68
  8
0
  6
CONTINUOUS
 62
     7
 10
337.7020073892
 20
871.3932599549
 30
0.0
 11
337.7020073892
 21
866.4117857143
 31
0.0
  0
LINE
  5
69
  8
0
  6
CONTINUOUS
 62
     7
 10
341.7020073892
 20
871.3932599549
 30
0.0
 11
341.7020073892
 21
866.4117856908
 31
0.0
  0
LINE
  5
6A
  8
0
  6
CONTINUOUS
 62
     7
 10
785.7020073892
 20
974.7726343092
 30
0.0
 11
785.7020073892
 21
953.4960189045
 31
0.0
  0
LINE
  5
6B
  8
0
  6
CONTINUOUS
 62
     7
 10
781.7020073892
 20
953.4960189045
 30
0.0
 11
781.7020073892
 21
974.7726343092
 31
0.0
  0
LINE
  5
6C
  8
0
  6
CONTINUOUS
 62
     7
 10
337.7020073892
 20
974.7726343092
 30
0.0
 11
337.7020073892
 21
953.4960189045
 31
0.0
  0
LINE
  5
6D
  8
0
  6
CONTINUOUS
 62
     7
 10
341.7020073892
 20
974.7726343092
 30
0.0
 11
341.7020073892
 21
953.4960189045
 31
0.0
  0
LINE
  5
6E
  8
0
  6
CONTINUOUS
 62
     7
 10
781.7020073892
 20
985.4117857143
 30
0.0
 11
785.7020073892
 21
985.4117857143
 31
0.0
  0
LINE
  5
6F
  8
0
  6
CONTINUOUS
 62
     7
 10
785.7020073892
 20
985.4117857143
 30
0.0
 11
785.7020073892
 21
974.7726343092
 31
0.0
  0
LINE
  5
70
  8
0
  6
CONTINUOUS
 62
     7
 10
781.7020073892
 20
974.7726343092
 30
0.0
 11
781.7020073892
 21
985.4117857143
 31
0.0
  0
LINE
  5
71
  8
0
  6
CONTINUOUS
 62
     7
 10
337.7020073892
 20
985.4117857143
 30
0.0
 11
341.7020073892
 21
985.4117857143
 31
0.0
  0
LINE
  5
72
  8
0
  6
CONTINUOUS
 62
     7
 10
337.7020073892
 20
985.4117857143
 30
0.0
 11
337.7020073892
 21
974.7726343092
 31
0.0
  0
LINE
  5
73
  8
0
  6
CONTINUOUS
 62
     7
 10
341.7020073892
 20
985.4117857143
 30
0.0
 11
341.7020073892
 21
974.7726343092
 31
0.0
  0
LINE
  5
74
  8
0
  6
CONTINUOUS
 62
     7
 10
337.7020073892
 20
860.4117857143
 30
0.0
 11
337.7020073892
 21
866.4117857143
 31
0.0
  0
LINE
  5
75
  8
0
  6
CONTINUOUS
 62
     7
 10
341.7020073892
 20
866.4117856908
 30
0.0
 11
341.7020073892
 21
860.4117857143
 31
0.0
  0
LINE
  5
76
  8
0
  6
CONTINUOUS
 62
     7
 10
785.7020073892
 20
866.4117857143
 30
0.0
 11
785.7020073892
 21
860.4117857143
 31
0.0
  0
LINE
  5
77
  8
0
  6
CONTINUOUS
 62
     7
 10
781.7020073892
 20
860.4117857143
 30
0.0
 11
781.7020073892
 21
866.4117857143
 31
0.0
  0
LINE
  5
78
  8
0
  6
CONTINUOUS
 62
     7
 10
785.7020073892
 20
860.4117857143
 30
0.0
 11
785.7020073892
 21
844.4117857143
 31
0.0
  0
LINE
  5
79
  8
0
  6
CONTINUOUS
 62
     7
 10
781.7020073892
 20
844.4117857143
 30
0.0
 11
781.7020073892
 21
860.4117857143
 31
0.0
  0
LINE
  5
7A
  8
0
  6
CONTINUOUS
 62
     7
 10
337.7020073892
 20
844.4117857143
 30
0.0
 11
337.7020073892
 21
860.4117857143
 31
0.0
  0
LINE
  5
7B
  8
0
  6
CONTINUOUS
 62
     7
 10
341.7020073892
 20
860.4117857143
 30
0.0
 11
341.7020073892
 21
844.4117857143
 31
0.0
  0
POLYLINE
  5
7C
  8
0
  6
CONTINUOUS
 62
     7
 66
     1
 10
0.0
 20
0.0
 30
0.0
  0
VERTEX
  5
FF
  8
0
  6
CONTINUOUS
 62
     7
 10
344.7020073892
 20
866.4117856908
 30
0.0
  0
VERTEX
  5
100
  8
0
  6
CONTINUOUS
 62
     7
 10
344.1167364231
 20
866.4117856913
 30
0.0
  0
VERTEX
  5
101
  8
0
  6
CONTINUOUS
 62
     7
 10
343.5539570921
 20
866.4117856926
 30
0.0
  0
VERTEX
  5
102
  8
0
  6
CONTINUOUS
 62
     7
 10
343.0352966901
 20
866.4117856948
 30
0.0
  0
VERTEX
  5
103
  8
0
  6
CONTINUOUS
 62
     7
 10
342.5806870456
 20
866.4117856977
 30
0.0
  0
VERTEX
  5
104
  8
0
  6
CONTINUOUS
 62
     7
 10
342.2075985523
 20
866.4117857012
 30
0.0
  0
VERTEX
  5
105
  8
0
  6
CONTINUOUS
 62
     7
 10
341.9303687916
 20
866.4117857053
 30
0.0
  0
VERTEX
  5
106
  8
0
  6
CONTINUOUS
 62
     7
 10
341.759651548
 20
866.4117857097
 30
0.0
  0
VERTEX
  5
107
  8
0
  6
CONTINUOUS
 62
     7
 10
341.7020073892
 20
866.4117856908
 30
0.0
  0
SEQEND
  5
116
  8
0
  6
CONTINUOUS
 62
     7
  0
LINE
  5
7D
  8
0
  6
CONTINUOUS
 62
     7
 10
341.7020073892
 20
985.4117857143
 30
0.0
 11
344.7020073892
 21
985.4117857143
 31
0.0
  0
POLYLINE
  5
7E
  8
0
  6
CONTINUOUS
 62
     7
 66
     1
 10
0.0
 20
0.0
 30
0.0
  0
VERTEX
  5
108
  8
0
  6
CONTINUOUS
 62
     7
 10
781.7020073892
 20
866.4117856908
 30
0.0
  0
VERTEX
  5
109
  8
0
  6
CONTINUOUS
 62
     7
 10
781.6443632304
 20
866.4117856913
 30
0.0
  0
VERTEX
  5
10A
  8
0
  6
CONTINUOUS
 62
     7
 10
781.4736459867
 20
866.4117856926
 30
0.0
  0
VERTEX
  5
10B
  8
0
  6
CONTINUOUS
 62
     7
 10
781.1964162261
 20
866.4117856948
 30
0.0
  0
VERTEX
  5
10C
  8
0
  6
CONTINUOUS
 62
     7
 10
780.8233277327
 20
866.4117856977
 30
0.0
  0
VERTEX
  5
10D
  8
0
  6
CONTINUOUS
 62
     7
 10
780.3687180882
 20
866.4117857012
 30
0.0
  0
VERTEX
  5
10E
  8
0
  6
CONTINUOUS
 62
     7
 10
779.8500576863
 20
866.4117857053
 30
0.0
  0
VERTEX
  5
10F
  8
0
  6
CONTINUOUS
 62
     7
 10
779.2872783552
 20
866.4117857097
 30
0.0
  0
VERTEX
  5
110
  8
0
  6
CONTINUOUS
 62
     7
 10
778.7020073892
 20
866.4117856908
 30
0.0
  0
SEQEND
  5
115
  8
0
  6
CONTINUOUS
 62
     7
  0
LINE
  5
7F
  8
0
  6
CONTINUOUS
 62
     7
 10
778.7020073892
 20
985.4117857143
 30
0.0
 11
781.7020073892
 21
985.4117857143
 31
0.0
  0
LINE
  5
80
  8
0
  6
CONTINUOUS
 62
     7
 10
385.7020073892
 20
920.4117857143
 30
0.0
 11
385.7020073892
 21
876.4117857143
 31
0.0
  0
ARC
  5
81
  8
0
  6
CONTINUOUS
 62
     7
 10
375.7020073892
 20
876.4117857143
 30
0.0
 40
10.00000002347872
 50
270.0
 51
0.0
  0
ARC
  5
82
  8
0
  6
CONTINUOUS
 62
     7
 10
365.4520073892
 20
905.9117857143
 30
0.0
 40
5.5
 50
270.0
 51
90.0
  0
LINE
  5
83
  8
0
  6
CONTINUOUS
 62
     7
 10
365.4520073892
 20
911.4117857143
 30
0.0
 11
361.4520073892
 21
911.4117857143
 31
0.0
  0
ARC
  5
84
  8
0
  6
CONTINUOUS
 62
     7
 10
361.4520073892
 20
905.9117857143
 30
0.0
 40
5.5
 50
90.0
 51
270.0
  0
LINE
  5
85
  8
0
  6
CONTINUOUS
 62
     7
 10
361.4520073892
 20
900.4117857143
 30
0.0
 11
365.4520073892
 21
900.4117857143
 31
0.0
  0
LINE
  5
86
  8
0
  6
CONTINUOUS
 62
     7
 10
375.7020073892
 20
866.4117856908
 30
0.0
 11
344.7020073892
 21
866.4117856908
 31
0.0
  0
LINE
  5
87
  8
0
  6
CONTINUOUS
 62
     7
 10
353.7858089021
 20
985.4117857143
 30
0.0
 11
344.7020073892
 21
985.4117857143
 31
0.0
  0
ARC
  5
88
  8
0
  6
CONTINUOUS
 62
     7
 10
747.7020073892
 20
876.4117857143
 30
0.0
 40
10.00000002347872
 50
180.0
 51
270.0
  0
LINE
  5
89
  8
0
  6
CONTINUOUS
 62
     7
 10
737.7020073892
 20
876.4117857143
 30
0.0
 11
737.7020073892
 21
920.4117857143
 31
0.0
  0
ARC
  5
8A
  8
0
  6
CONTINUOUS
 62
     7
 10
761.9520073892
 20
905.9117857143
 30
0.0
 40
5.5
 50
270.0
 51
90.0
  0
LINE
  5
8B
  8
0
  6
CONTINUOUS
 62
     7
 10
761.9520073892
 20
911.4117857143
 30
0.0
 11
757.9520073892
 21
911.4117857143
 31
0.0
  0
ARC
  5
8C
  8
0
  6
CONTINUOUS
 62
     7
 10
757.9520073892
 20
905.9117857143
 30
0.0
 40
5.5
 50
90.0
 51
270.0
  0
LINE
  5
8D
  8
0
  6
CONTINUOUS
 62
     7
 10
757.9520073892
 20
900.4117857143
 30
0.0
 11
761.9520073892
 21
900.4117857143
 31
0.0
  0
LINE
  5
8E
  8
0
  6
CONTINUOUS
 62
     7
 10
778.7020073892
 20
866.4117856908
 30
0.0
 11
747.7020073892
 21
866.4117856908
 31
0.0
  0
LINE
  5
8F
  8
0
  6
CONTINUOUS
 62
     7
 10
778.7020073892
 20
985.4117857143
 30
0.0
 11
769.6182058763
 21
985.4117857143
 31
0.0
  0
LINE
  5
90
  8
0
  6
CONTINUOUS
 62
     7
 10
361.4520073892
 20
955.4117857143
 30
0.0
 11
365.4520073892
 21
955.4117857143
 31
0.0
  0
LINE
  5
91
  8
0
  6
CONTINUOUS
 62
     7
 10
365.4520073892
 20
966.4117857143
 30
0.0
 11
361.4520073892
 21
966.4117857143
 31
0.0
  0
LINE
  5
92
  8
0
  6
CONTINUOUS
 62
     7
 10
757.9520073892
 20
955.4117857143
 30
0.0
 11
761.9520073892
 21
955.4117857143
 31
0.0
  0
LINE
  5
93
  8
0
  6
CONTINUOUS
 62
     7
 10
761.9520073892
 20
966.4117857143
 30
0.0
 11
757.9520073892
 21
966.4117857143
 31
0.0
  0
ARC
  5
94
  8
0
  6
CONTINUOUS
 62
     7
 10
365.4520073892
 20
960.9117857143
 30
0.0
 40
5.5
 50
270.0
 51
90.0
  0
ARC
  5
95
  8
0
  6
CONTINUOUS
 62
     7
 10
361.4520073892
 20
960.9117857143
 30
0.0
 40
5.500000000000114
 50
90.0
 51
270.0
  0
ARC
  5
96
  8
0
  6
CONTINUOUS
 62
     7
 10
757.9520073892
 20
960.9117857143
 30
0.0
 40
5.500000000000114
 50
90.0
 51
270.0
  0
ARC
  5
97
  8
0
  6
CONTINUOUS
 62
     7
 10
761.9520073892
 20
960.9117857143
 30
0.0
 40
5.5
 50
270.0
 51
90.0
  0
LINE
  5
98
  8
0
  6
CENTERX2
 62
     7
 10
561.7020073892
 20
814.1985453468
 30
0.0
 11
561.7020073892
 21
1027.7419028719
 31
0.0
  0
LINE
  5
99
  8
0
  6
CONTINUOUS
 62
     7
 10
781.7020073892
 20
457.6063015525
 30
0.0
 11
770.2020073892
 21
457.6063015525
 31
0.0
  0
LINE
  5
9A
  8
0
  6
CONTINUOUS
 62
     7
 10
353.2020073892
 20
457.6063015525
 30
0.0
 11
341.7020073892
 21
457.6063015525
 31
0.0
  0
LINE
  5
9B
  8
0
  6
CONTINUOUS
 62
     7
 10
341.7020073892
 20
437.6063015525
 30
0.0
 11
353.2020073892
 21
437.6063015525
 31
0.0
  0
LINE
  5
9C
  8
0
  6
CONTINUOUS
 62
     7
 10
770.2020073892
 20
437.6063015525
 30
0.0
 11
781.7020073892
 21
437.6063015525
 31
0.0
  0
LINE
  5
9D
  8
0
  6
CONTINUOUS
 62
     7
 10
781.7020073892
 20
411.9838314995
 30
0.0
 11
785.7020073892
 21
411.9838314995
 31
0.0
  0
LINE
  5
9E
  8
0
  6
CONTINUOUS
 62
     7
 10
337.7020073892
 20
411.9838314995
 30
0.0
 11
341.7020073892
 21
411.9838314995
 31
0.0
  0
LINE
  5
9F
  8
0
  6
CONTINUOUS
 62
     7
 10
353.2020073892
 20
519.1063015525
 30
0.0
 11
770.2020073892
 21
519.1063015525
 31
0.0
  0
LINE
  5
A0
  8
0
  6
CONTINUOUS
 62
     7
 10
770.2020073892
 20
519.1063015525
 30
0.0
 11
762.2020073892
 21
511.1063015525
 31
0.0
  0
LINE
  5
A1
  8
0
  6
CONTINUOUS
 62
     7
 10
353.2020073892
 20
519.1063015525
 30
0.0
 11
361.2020073892
 21
511.1063015525
 31
0.0
  0
LINE
  5
A2
  8
0
  6
CONTINUOUS
 62
     7
 10
770.2020073892
 20
519.1063015525
 30
0.0
 11
770.2020073892
 21
139.7665555904
 31
0.0
  0
LINE
  5
A3
  8
0
  6
CONTINUOUS
 62
     7
 10
762.2020073892
 20
147.7665555904
 30
0.0
 11
770.2020073892
 21
139.7665555904
 31
0.0
  0
LINE
  5
A4
  8
0
  6
CONTINUOUS
 62
     7
 10
353.2020073892
 20
139.7665555904
 30
0.0
 11
353.2020073892
 21
519.1063015525
 31
0.0
  0
LINE
  5
A5
  8
0
  6
CONTINUOUS
 62
     7
 10
361.2020073892
 20
147.7665555904
 30
0.0
 11
353.2020073892
 21
139.7665555904
 31
0.0
  0
LINE
  5
A6
  8
0
  6
CONTINUOUS
 62
     7
 10
770.2020073892
 20
139.7665555904
 30
0.0
 11
353.2020073892
 21
139.7665555904
 31
0.0
  0
LINE
  5
A7
  8
0
  6
CONTINUOUS
 62
     7
 10
737.7020073892
 20
540.6063015525
 30
0.0
 11
737.7020073892
 21
544.6063015525
 31
0.0
  0
LINE
  5
A8
  8
0
  6
CONTINUOUS
 62
     7
 10
737.7020073892
 20
544.6063015525
 30
0.0
 11
747.7020073892
 21
544.6063015525
 31
0.0
  0
LINE
  5
A9
  8
0
  6
CONTINUOUS
 62
     7
 10
747.7020073892
 20
540.6063015525
 30
0.0
 11
737.7020073892
 21
540.6063015525
 31
0.0
  0
LINE
  5
AA
  8
0
  6
CONTINUOUS
 62
     7
 10
375.7020073892
 20
544.6063015525
 30
0.0
 11
385.7020073892
 21
544.6063015525
 31
0.0
  0
LINE
  5
AB
  8
0
  6
CONTINUOUS
 62
     7
 10
385.7020073892
 20
544.6063015525
 30
0.0
 11
385.7020073892
 21
540.6063015525
 31
0.0
  0
LINE
  5
AC
  8
0
  6
CONTINUOUS
 62
     7
 10
385.7020073892
 20
540.6063015525
 30
0.0
 11
375.7020073892
 21
540.6063015525
 31
0.0
  0
LINE
  5
AD
  8
0
  6
CONTINUOUS
 62
     7
 10
781.7020073892
 20
498.6063015525
 30
0.0
 11
781.7020073892
 21
537.6063015525
 31
0.0
  0
ARC
  5
AE
  8
0
  6
CONTINUOUS
 62
     7
 10
778.7020073892
 20
537.6063015525
 30
0.0
 40
3.000000000000114
 50
0.0
 51
90.0
  0
LINE
  5
AF
  8
0
  6
CONTINUOUS
 62
     7
 10
778.7020073892
 20
540.6063015525
 30
0.0
 11
747.7020073892
 21
540.6063015525
 31
0.0
  0
LINE
  5
B0
  8
0
  6
CONTINUOUS
 62
     7
 10
785.7020073892
 20
537.6063015525
 30
0.0
 11
785.7020073892
 21
498.6063015525
 31
0.0
  0
LINE
  5
B1
  8
0
  6
CONTINUOUS
 62
     7
 10
747.7020073892
 20
544.6063015525
 30
0.0
 11
778.7020073892
 21
544.6063015525
 31
0.0
  0
ARC
  5
B2
  8
0
  6
CONTINUOUS
 62
     7
 10
778.7020073892
 20
537.6063015525
 30
0.0
 40
7.0
 50
0.0
 51
90.0
  0
LINE
  5
B3
  8
0
  6
CONTINUOUS
 62
     7
 10
375.7020073892
 20
540.6063015525
 30
0.0
 11
344.7020073892
 21
540.6063015525
 31
0.0
  0
ARC
  5
B4
  8
0
  6
CONTINUOUS
 62
     7
 10
344.7020073892
 20
537.6063015525
 30
0.0
 40
3.0
 50
90.0
 51
180.0
  0
LINE
  5
B5
  8
0
  6
CONTINUOUS
 62
     7
 10
341.7020073892
 20
537.6063015525
 30
0.0
 11
341.7020073892
 21
498.6063015525
 31
0.0
  0
LINE
  5
B6
  8
0
  6
CONTINUOUS
 62
     7
 10
337.7020073892
 20
537.6063015525
 30
0.0
 11
337.7020073892
 21
498.6063015525
 31
0.0
  0
LINE
  5
B7
  8
0
  6
CONTINUOUS
 62
     7
 10
344.7020073892
 20
544.6063015525
 30
0.0
 11
375.7020073892
 21
544.6063015525
 31
0.0
  0
ARC
  5
B8
  8
0
  6
CONTINUOUS
 62
     7
 10
344.7020073892
 20
537.6063015525
 30
0.0
 40
7.0
 50
90.0
 51
180.0
  0
LINE
  5
B9
  8
0
  6
CONTINUOUS
 62
     7
 10
341.7020073892
 20
498.6063015525
 30
0.0
 11
341.7020073892
 21
437.6398930705
 31
0.0
  0
LINE
  5
BA
  8
0
  6
CONTINUOUS
 62
     7
 10
337.7020073892
 20
498.6063015525
 30
0.0
 11
337.7020073892
 21
437.6398930705
 31
0.0
  0
LINE
  5
BB
  8
0
  6
CONTINUOUS
 62
     7
 10
785.7020073892
 20
498.6063015525
 30
0.0
 11
785.7020073892
 21
437.6398930705
 31
0.0
  0
LINE
  5
BC
  8
0
  6
CONTINUOUS
 62
     7
 10
781.7020073892
 20
437.6398930705
 30
0.0
 11
781.7020073892
 21
498.6063015525
 31
0.0
  0
LINE
  5
BD
  8
0
  6
CONTINUOUS
 62
     7
 10
341.7020073892
 20
437.6398930705
 30
0.0
 11
341.7020073892
 21
420.6421705216
 31
0.0
  0
LINE
  5
BE
  8
0
  6
CONTINUOUS
 62
     7
 10
337.7020073892
 20
437.6398930705
 30
0.0
 11
337.7020073892
 21
420.6421705216
 31
0.0
  0
LINE
  5
BF
  8
0
  6
CONTINUOUS
 62
     7
 10
785.7020073892
 20
437.6398930705
 30
0.0
 11
785.7020073892
 21
420.6421705216
 31
0.0
  0
LINE
  5
C0
  8
0
  6
CONTINUOUS
 62
     7
 10
781.7020073892
 20
420.6421705216
 30
0.0
 11
781.7020073892
 21
437.6398930705
 31
0.0
  0
LINE
  5
C1
  8
0
  6
CONTINUOUS
 62
     7
 10
341.7020073892
 20
420.6421705216
 30
0.0
 11
341.7020073892
 21
412.0743015525
 31
0.0
  0
LINE
  5
C2
  8
0
  6
CONTINUOUS
 62
     7
 10
337.7020073892
 20
420.6421705216
 30
0.0
 11
337.7020073892
 21
412.0743015525
 31
0.0
  0
LINE
  5
C3
  8
0
  6
CONTINUOUS
 62
     7
 10
785.7020073892
 20
420.6421705216
 30
0.0
 11
785.7020073892
 21
412.0743015525
 31
0.0
  0
LINE
  5
C4
  8
0
  6
CONTINUOUS
 62
     7
 10
781.7020073892
 20
412.0743015525
 30
0.0
 11
781.7020073892
 21
420.6421705216
 31
0.0
  0
LINE
  5
C5
  8
0
  6
CONTINUOUS
 62
     7
 10
785.7020073892
 20
412.0743015525
 30
0.0
 11
785.7020073892
 21
411.9838314995
 31
0.0
  0
LINE
  5
C6
  8
0
  6
CONTINUOUS
 62
     7
 10
781.7020073892
 20
411.9838314995
 30
0.0
 11
781.7020073892
 21
412.0743015525
 31
0.0
  0
LINE
  5
C7
  8
0
  6
CONTINUOUS
 62
     7
 10
341.7020073892
 20
412.0743015525
 30
0.0
 11
341.7020073892
 21
411.9838314995
 31
0.0
  0
LINE
  5
C8
  8
0
  6
CONTINUOUS
 62
     7
 10
337.7020073892
 20
412.0743015525
 30
0.0
 11
337.7020073892
 21
411.9838314995
 31
0.0
  0
LINE
  5
C9
  8
0
  6
CENTERX2
 62
     7
 10
561.7020073892
 20
547.6063015525
 30
0.0
 11
561.7020073892
 21
74.9040446364
 31
0.0
  0
ARC
  5
CA
  8
0
  6
CONTINUOUS
 62
     7
 10
1000.4653486938
 20
982.4117857143
 30
0.0
 40
7.999999999999694
 50
90.0
 51
157.975687163
  0
LINE
  5
CB
  8
0
  6
CONTINUOUS
 62
     7
 10
1000.4653486938
 20
990.4117857143
 30
0.0
 11
1363.805094656
 21
990.4117857143
 31
0.0
  0
ARC
  5
CC
  8
0
  6
CONTINUOUS
 62
     7
 10
1363.805094656
 20
982.4117857143
 30
0.0
 40
7.999999999999545
 50
360.0
 51
90.0
  0
LINE
  5
CD
  8
0
  6
CONTINUOUS
 62
     7
 10
1371.805094656
 20
960.4117857143
 30
0.0
 11
1089.0825809559
 21
960.4117857143
 31
0.0
  0
LINE
  5
CE
  8
0
  6
CONTINUOUS
 62
     7
 10
1371.805094656
 20
982.4117857143
 30
0.0
 11
1371.805094656
 21
960.4117857143
 31
0.0
  0
LINE
  5
CF
  8
0
  6
CONTINUOUS
 62
     7
 10
1348.9845865803
 20
920.4117857143
 30
0.0
 11
1095.0151601493
 21
920.4117857143
 31
0.0
  0
LINE
  5
D0
  8
0
  6
CONTINUOUS
 62
     7
 10
1370.6352216749
 20
952.9117857143
 30
0.0
 11
1353.3147135992
 21
922.9117857143
 31
0.0
  0
ARC
  5
D1
  8
0
  6
CONTINUOUS
 62
     7
 10
1348.9845865803
 20
925.4117857143
 30
0.0
 40
5.000000000000016
 50
270.0
 51
330.0
  0
LINE
  5
D2
  8
0
  6
CONTINUOUS
 62
     7
 10
1371.305094656
 20
960.4117857143
 30
0.0
 11
1371.305094656
 21
955.4117857143
 31
0.0
  0
ARC
  5
D3
  8
0
  6
CONTINUOUS
 62
     7
 10
1366.305094656
 20
955.4117857143
 30
0.0
 40
5.000000000000073
 50
330.0
 51
0.0
  0
LINE
  5
D4
  8
0
  6
CONTINUOUS
 62
     7
 10
966.9653486938
 20
866.4117857143
 30
0.0
 11
966.9653486938
 21
985.4117857143
 31
0.0
  0
LINE
  5
D5
  8
0
  6
CONTINUOUS
 62
     7
 10
973.9653486938
 20
866.4117857143
 30
0.0
 11
966.9653486938
 21
866.4117857143
 31
0.0
  0
LINE
  5
D6
  8
0
  6
CONTINUOUS
 62
     7
 10
966.9653486938
 20
985.4117857143
 30
0.0
 11
973.9653486938
 21
985.4117857143
 31
0.0
  0
CIRCLE
  5
D7
  8
0
  6
CONTINUOUS
 62
     7
 10
1011.9653486938
 20
860.4117857143
 30
0.0
 40
5.749999999999886
  0
ARC
  5
D8
  8
0
  6
CONTINUOUS
 62
     7
 10
1012.9653486938
 20
805.4117857143
 30
0.0
 40
180.0
 50
70.2021709788
 51
90.0
  0
ARC
  5
D9
  8
0
  6
CONTINUOUS
 62
     7
 10
1065.1254981729
 20
950.3094006233
 30
0.0
 40
26.0
 50
7.04
 51
70.2021709788
  0
LINE
  5
DA
  8
0
  6
CONTINUOUS
 62
     7
 10
1090.9294797247
 20
953.4960189045
 30
0.0
 11
1099.4973486938
 21
884.1167857143
 31
0.0
  0
ARC
  5
DB
  8
0
  6
CONTINUOUS
 62
     7
 10
1087.5878187468
 20
882.6460388153
 30
0.0
 40
12.00000000000026
 50
290.3259722805
 51
7.04
  0
ARC
  5
DC
  8
0
  6
CONTINUOUS
 62
     7
 10
1063.9672868855
 20
946.4117856908
 30
0.0
 40
80.00000000000011
 50
269.9986118724
 51
290.3259722805
  0
LINE
  5
DD
  8
0
  6
CONTINUOUS
 62
     7
 10
1063.9653486938
 20
866.4117857143
 30
0.0
 11
1033.9653486938
 21
866.4117857143
 31
0.0
  0
ARC
  5
DE
  8
0
  6
CONTINUOUS
 62
     7
 10
1033.9653486938
 20
860.4117857143
 30
0.0
 40
6.000000000000114
 50
90.0
 51
180.0
  0
ARC
  5
DF
  8
0
  6
CONTINUOUS
 62
     7
 10
1011.9653486938
 20
860.4117857143
 30
0.0
 40
16.00000000000011
 50
180.0
 51
0.0
  0
ARC
  5
E0
  8
0
  6
CONTINUOUS
 62
     7
 10
989.9653486938
 20
860.4117857143
 30
0.0
 40
6.0
 50
0.0
 51
90.0
  0
LINE
  5
E1
  8
0
  6
CONTINUOUS
 62
     7
 10
989.9653486938
 20
866.4117857143
 30
0.0
 11
973.9653486938
 21
866.4117857143
 31
0.0
  0
LINE
  5
E2
  8
0
  6
CONTINUOUS
 62
     7
 10
973.9653486938
 20
985.4117857143
 30
0.0
 11
1012.9653486938
 21
985.4117857143
 31
0.0
  0
POLYLINE
  5
E3
  8
0
  6
CONTINUOUS
 62
     7
 66
     1
 10
0.0
 20
0.0
 30
0.0
  0
VERTEX
  5
111
  8
0
  6
CONTINUOUS
 62
     7
 10
1551.4960413825
 20
866.3594542197
 30
0.0
  0
VERTEX
  5
112
  8
0
  6
CONTINUOUS
 62
     7
 10
1549.9317464881
 20
866.2478048063
 30
0.0
  0
VERTEX
  5
113
  8
0
  6
CONTINUOUS
 62
     7
 10
1548.5216025536
 20
866.4117857143
 30
0.0
  0
SEQEND
  5
114
  8
0
  6
CONTINUOUS
 62
     7
  0
LINE
  5
E4
  8
0
  6
CONTINUOUS
 62
     7
 10
1523.0138334629
 20
985.4117857143
 30
0.0
 11
1480.995968529
 21
1231.0332079488
 31
0.0
  0
ARC
  5
E5
  8
0
  6
CONTINUOUS
 62
     7
 10
1488.8814201224
 20
1232.3821531547
 30
0.0
 40
8.00000000000013
 50
99.7074851387
 51
189.7074851387
  0
LINE
  5
E6
  8
0
  6
CONTINUOUS
 62
     7
 10
1509.2174667982
 20
1243.9772040643
 30
0.0
 11
1553.7957939157
 21
983.3882349521
 31
0.0
  0
LINE
  5
E7
  8
0
  6
CONTINUOUS
 62
     7
 10
1551.801952598
 20
866.4117857143
 30
0.0
 11
1551.4960413825
 21
866.3594542197
 31
0.0
  0
LINE
  5
E8
  8
0
  6
CONTINUOUS
 62
     7
 10
1487.5324749165
 20
1240.2676047481
 30
0.0
 11
1509.2174667982
 21
1243.9772040643
 31
0.0
  0
LINE
  5
E9
  8
0
  6
CONTINUOUS
 62
     7
 10
1509.3017758736
 20
1243.4843633398
 30
0.0
 11
1514.2301831195
 21
1244.3274540935
 31
0.0
  0
ARC
  5
EA
  8
0
  6
CONTINUOUS
 62
     7
 10
1515.0732738732
 20
1239.3990468476
 30
0.0
 40
5.00000000000019
 50
69.7074851387
 51
99.7074851387
  0
LINE
  5
EB
  8
0
  6
CONTINUOUS
 62
     7
 10
1516.8073394857
 20
1244.0887180996
 30
0.0
 11
1549.2983350024
 21
1232.0747591213
 31
0.0
  0
ARC
  5
EC
  8
0
  6
CONTINUOUS
 62
     7
 10
1547.5642693899
 20
1227.3850878693
 30
0.0
 40
5.000000000000068
 50
9.7074851387
 51
69.7074851387
  0
LINE
  5
ED
  8
0
  6
CONTINUOUS
 62
     7
 10
1552.4926766358
 20
1228.228178623
 30
0.0
 11
1596.7844286738
 21
969.31442501
 31
0.0
  0
LINE
  5
EE
  8
0
  6
CONTINUOUS
 62
     7
 10
1612.4513185165
 20
877.7313859573
 30
0.0
 11
1612.5239821558
 21
877.3066202901
 31
0.0
  0
LINE
  5
EF
  8
0
  6
CONTINUOUS
 62
     7
 10
1612.5239821558
 20
877.3066202901
 30
0.0
 11
1612.2249804333
 21
877.2554707858
 31
0.0
  0
LINE
  5
F0
  8
0
  6
CONTINUOUS
 62
     7
 10
1480.8814201224
 20
866.4117857143
 30
0.0
 11
1480.8814201224
 21
985.4117857143
 31
0.0
  0
LINE
  5
F1
  8
0
  6
CONTINUOUS
 62
     7
 10
1487.8814201224
 20
866.4117857143
 30
0.0
 11
1480.8814201224
 21
866.4117857143
 31
0.0
  0
LINE
  5
F2
  8
0
  6
CONTINUOUS
 62
     7
 10
1480.8814201224
 20
985.4117857143
 30
0.0
 11
1487.8814201224
 21
985.4117857143
 31
0.0
  0
CIRCLE
  5
F3
  8
0
  6
CONTINUOUS
 62
     7
 10
1525.8814201224
 20
860.4117857143
 30
0.0
 40
5.75
  0
ARC
  5
F4
  8
0
  6
CONTINUOUS
 62
     7
 10
1526.8814201224
 20
805.4117857143
 30
0.0
 40
180.0
 50
70.2021709788
 51
90.0
  0
ARC
  5
F5
  8
0
  6
CONTINUOUS
 62
     7
 10
1579.0415696014
 20
950.3094006233
 30
0.0
 40
26.00000000000008
 50
7.04
 51
70.2021709788
  0
LINE
  5
F6
  8
0
  6
CONTINUOUS
 62
     7
 10
1604.8455511533
 20
953.4960189045
 30
0.0
 11
1613.4134201224
 21
884.1167857143
 31
0.0
  0
ARC
  5
F7
  8
0
  6
CONTINUOUS
 62
     7
 10
1601.5038901753
 20
882.6460388153
 30
0.0
 40
12.00000000000018
 50
290.3259722805
 51
7.04
  0
ARC
  5
F8
  8
0
  6
CONTINUOUS
 62
     7
 10
1577.8833583141
 20
946.4117856908
 30
0.0
 40
80.00000000000004
 50
269.9986118724
 51
290.3259722805
  0
LINE
  5
F9
  8
0
  6
CONTINUOUS
 62
     7
 10
1577.8814201224
 20
866.4117857143
 30
0.0
 11
1547.8814201224
 21
866.4117857143
 31
0.0
  0
ARC
  5
FA
  8
0
  6
CONTINUOUS
 62
     7
 10
1547.8814201224
 20
860.4117857143
 30
0.0
 40
6.000000000000114
 50
90.0
 51
180.0
  0
ARC
  5
FB
  8
0
  6
CONTINUOUS
 62
     7
 10
1525.8814201224
 20
860.4117857143
 30
0.0
 40
16.0
 50
180.0
 51
0.0
  0
ARC
  5
FC
  8
0
  6
CONTINUOUS
 62
     7
 10
1503.8814201224
 20
860.4117857143
 30
0.0
 40
6.0
 50
0.0
 51
90.0
  0
LINE
  5
FD
  8
0
  6
CONTINUOUS
 62
     7
 10
1503.8814201224
 20
866.4117857143
 30
0.0
 11
1487.8814201224
 21
866.4117857143
 31
0.0
  0
LINE
  5
FE
  8
0
  6
CONTINUOUS
 62
     7
 10
1487.8814201224
 20
985.4117857143
 30
0.0
 11
1526.8814201224
 21
985.4117857143
 31
0.0
  0
ENDSEC
  0
EOF
