  0
SECTION
  2
HEADER
  9
$ACADVER
  1
AC1009
  9
$DWGCODEPAGE
  3
ansi_1252
  9
$INSBASE
 10
0.0
 20
0.0
 30
0.0
  9
$EXTMIN
 10
0.0
 20
0.0
 30
0.0
  9
$EXTMAX
 10
420.0
 20
297.0
 30
0.0
  9
$LIMMIN
 10
0.0
 20
0.0
  9
$LIMMAX
 10
420.0
 20
297.0
  9
$ORTHOMODE
 70
     0
  9
$REGENMODE
 70
     1
  9
$FILLMODE
 70
     1
  9
$QTEXTMODE
 70
     0
  9
$MIRRTEXT
 70
     1
  9
$DRAGMODE
 70
     2
  9
$LTSCALE
 40
1.0
  9
$OSMODE
 70
    37
  9
$ATTMODE
 70
     1
  9
$TEXTSIZE
 40
3.5
  9
$TRACEWID
 40
1.0
  9
$TEXTSTYLE
  7
STANDARD
  9
$CLAYER
  8
0
  9
$CELTYPE
  6
BYLAYER
  9
$CECOLOR
 62
   256
  9
$DIMSCALE
 40
1.0
  9
$DIMASZ
 40
4.0
  9
$DIMEXO
 40
0.0
  9
$DIMDLI
 40
3.75
  9
$DIMRND
 40
0.0
  9
$DIMDLE
 40
0.0
  9
$DIMEXE
 40
2.0
  9
$DIMTP
 40
0.0
  9
$DIMTM
 40
0.0
  9
$DIMTXT
 40
3.5
  9
$DIMCEN
 40
2.5
  9
$DIMTSZ
 40
0.0
  9
$DIMTOL
 70
     0
  9
$DIMLIM
 70
     0
  9
$DIMTIH
 70
     1
  9
$DIMTOH
 70
     1
  9
$DIMSE1
 70
     0
  9
$DIMSE2
 70
     0
  9
$DIMTAD
 70
     1
  9
$DIMZIN
 70
     0
  9
$DIMBLK
  1

  9
$DIMASO
 70
     1
  9
$DIMSHO
 70
     1
  9
$DIMPOST
  1

  9
$DIMAPOST
  1

  9
$DIMALT
 70
     0
  9
$DIMALTD
 70
     3
  9
$DIMALTF
 40
0.0393700787
  9
$DIMLFAC
 40
5.0
  9
$DIMTOFL
 70
     1
  9
$DIMTVP
 40
0.0
  9
$DIMTIX
 70
     0
  9
$DIMSOXD
 70
     0
  9
$DIMSAH
 70
     0
  9
$DIMBLK1
  1

  9
$DIMBLK2
  1

  9
$DIMSTYLE
  2
ISO-25
  9
$DIMCLRD
 70
     0
  9
$DIMCLRE
 70
     0
  9
$DIMCLRT
 70
     0
  9
$DIMTFAC
 40
1.0
  9
$DIMGAP
 40
1.524
  9
$LUNITS
 70
     2
  9
$LUPREC
 70
     2
  9
$SKETCHINC
 40
1.0
  9
$FILLETRAD
 40
10.0
  9
$AUNITS
 70
     0
  9
$AUPREC
 70
     2
  9
$MENU
  1
.
  9
$ELEVATION
 40
0.0
  9
$PELEVATION
 40
0.0
  9
$THICKNESS
 40
0.0
  9
$LIMCHECK
 70
     0
  9
$CHAMFERA
 40
10.0
  9
$CHAMFERB
 40
10.0
  9
$SKPOLY
 70
     0
  9
$TDCREATE
 40
2457792.599464931
  9
$TDUPDATE
 40
2457792.599465081
  9
$TDINDWG
 40
0.0000000116
  9
$TDUSRTIMER
 40
0.0000000116
  9
$USRTIMER
 70
     1
  9
$ANGBASE
 50
0.0
  9
$ANGDIR
 70
     0
  9
$PDMODE
 70
     0
  9
$PDSIZE
 40
-1.0
  9
$PLINEWID
 40
0.0
  9
$COORDS
 70
     1
  9
$SPLFRAME
 70
     0
  9
$SPLINETYPE
 70
     6
  9
$SPLINESEGS
 70
     8
  9
$ATTDIA
 70
     0
  9
$ATTREQ
 70
     1
  9
$HANDLING
 70
     1
  9
$HANDSEED
  5
106
  9
$SURFTAB1
 70
     6
  9
$SURFTAB2
 70
     6
  9
$SURFTYPE
 70
     6
  9
$SURFU
 70
     6
  9
$SURFV
 70
     6
  9
$UCSNAME
  2

  9
$UCSORG
 10
0.0
 20
0.0
 30
0.0
  9
$UCSXDIR
 10
1.0
 20
0.0
 30
0.0
  9
$UCSYDIR
 10
0.0
 20
1.0
 30
0.0
  9
$PUCSNAME
  2

  9
$PUCSORG
 10
0.0
 20
0.0
 30
0.0
  9
$PUCSXDIR
 10
1.0
 20
0.0
 30
0.0
  9
$PUCSYDIR
 10
0.0
 20
1.0
 30
0.0
  9
$USERI1
 70
     0
  9
$USERI2
 70
     0
  9
$USERI3
 70
     0
  9
$USERI4
 70
     0
  9
$USERI5
 70
     0
  9
$USERR1
 40
0.0
  9
$USERR2
 40
0.0
  9
$USERR3
 40
0.0
  9
$USERR4
 40
0.0
  9
$USERR5
 40
0.0
  9
$WORLDVIEW
 70
     1
  9
$SHADEDGE
 70
     3
  9
$SHADEDIF
 70
    70
  9
$TILEMODE
 70
     1
  9
$MAXACTVP
 70
    64
  9
$PLIMCHECK
 70
     0
  9
$PEXTMIN
 10
1.0000000000E+20
 20
1.0000000000E+20
 30
1.0000000000E+20
  9
$PEXTMAX
 10
-1.0000000000E+20
 20
-1.0000000000E+20
 30
-1.0000000000E+20
  9
$PLIMMIN
 10
0.0
 20
0.0
  9
$PLIMMAX
 10
420.0
 20
297.0
  9
$UNITMODE
 70
     0
  9
$VISRETAIN
 70
     1
  9
$PLINEGEN
 70
     0
  9
$PSLTSCALE
 70
     1
  0
ENDSEC
  0
SECTION
  2
TABLES
  0
TABLE
  2
VPORT
 70
     1
  0
VPORT
  2
*ACTIVE
 70
     0
 10
0.0
 20
0.0
 11
1.0
 21
1.0
 12
210.0
 22
148.5
 13
0.0
 23
0.0
 14
10.0
 24
10.0
 15
10.0
 25
10.0
 16
0.0
 26
0.0
 36
1.0
 17
0.0
 27
0.0
 37
0.0
 40
297.0
 41
1.4141414141
 42
50.0
 43
0.0
 44
0.0
 50
0.0
 51
0.0
 71
     0
 72
  2000
 73
     1
 74
     3
 75
     0
 76
     0
 77
     0
 78
     0
  0
ENDTAB
  0
TABLE
  2
LTYPE
 70
     6
  0
LTYPE
  2
CONTINUOUS
 70
     0
  3
Solid line
 72
    65
 73
     0
 40
0.0
  0
LTYPE
  2
HIDDEN
 70
     0
  3
Hidden __ __ __ __ __ __ __ __ __ __ __ __ __ __
 72
    65
 73
     2
 40
1.905
 49
1.27
 49
-0.635
  0
LTYPE
  2
PHANTOM
 70
     0
  3
Phantom ______  __  __  ______  __  __  ______
 72
    65
 73
     6
 40
12.7
 49
6.35
 49
-1.27
 49
1.27
 49
-1.27
 49
1.27
 49
-1.27
  0
LTYPE
  2
CENTER
 70
     0
  3
Center ____ _ ____ _ ____ _ ____ _ ____ _ ____
 72
    65
 73
     4
 40
10.16
 49
6.35
 49
-1.27
 49
1.27
 49
-1.27
  0
LTYPE
  2
CENTERX2
 70
     0
  3
Center (2x) ________  __  ________  __  _____
 72
    65
 73
     4
 40
20.32
 49
12.7
 49
-2.54
 49
2.54
 49
-2.54
  0
LTYPE
  2
DOT2
 70
     0
  3
Dot (.5x) ........................................
 72
    65
 73
     2
 40
0.635
 49
0.0
 49
-0.635
  0
ENDTAB
  0
TABLE
  2
LAYER
 70
     2
  0
LAYER
  2
0
 70
     0
 62
     7
  6
CONTINUOUS
  0
LAYER
  2
FORMAT
 70
     0
 62
     7
  6
CONTINUOUS
  0
ENDTAB
  0
TABLE
  2
STYLE
 70
     1
  0
STYLE
  2
STANDARD
 70
     0
 40
0.0
 41
1.0
 50
0.0
 71
     0
 42
3.5
  3
txt
  4

  0
ENDTAB
  0
TABLE
  2
VIEW
 70
     0
  0
ENDTAB
  0
TABLE
  2
UCS
 70
     0
  0
ENDTAB
  0
TABLE
  2
APPID
 70
     1
  0
APPID
  2
ACAD
 70
     0
  0
ENDTAB
  0
TABLE
  2
DIMSTYLE
 70
     1
  0
DIMSTYLE
  2
ISO-25
 70
     0
  3

  4

  5

  6

  7

 40
1.0
 41
2.5
 42
0.625
 43
3.75
 44
1.25
 45
0.0
 46
0.0
 47
0.0
 48
0.0
140
2.5
141
2.5
142
0.0
143
0.0393700787
144
1.0
145
0.0
146
1.0
147
0.625
 71
     0
 72
     0
 73
     0
 74
     0
 75
     0
 76
     0
 77
     1
 78
     8
170
     0
171
     3
172
     1
173
     0
174
     0
175
     0
176
     0
177
     0
178
     0
  0
ENDTAB
  0
ENDSEC
  0
SECTION
  2
BLOCKS
  0
BLOCK
  8
0
  2
$MODEL_SPACE
 70
     0
 10
0.0
 20
0.0
 30
0.0
  3
$MODEL_SPACE
  1

  0
ENDBLK
  5
21
  8
0
  0
BLOCK
 67
     1
  8
0
  2
$PAPER_SPACE
 70
     0
 10
0.0
 20
0.0
 30
0.0
  3
$PAPER_SPACE
  1

  0
ENDBLK
  5
1D
 67
     1
  8
0
  0
ENDSEC
  0
SECTION
  2
ENTITIES
  0
LINE
  5
45
  8
0
  6
CONTINUOUS
 62
     7
 10
414.85
 20
5.15
 30
0.0
 11
5.15
 21
5.15
 31
0.0
  0
LINE
  5
46
  8
0
  6
CONTINUOUS
 62
     7
 10
415.0
 20
5.0
 30
0.0
 11
415.0
 21
277.0
 31
0.0
  0
LINE
  5
47
  8
0
  6
CONTINUOUS
 62
     7
 10
415.0
 20
277.0
 30
0.0
 11
5.0
 21
277.0
 31
0.0
  0
LINE
  5
48
  8
0
  6
CONTINUOUS
 62
     7
 10
5.15
 20
276.85
 30
0.0
 11
5.15
 21
5.15
 31
0.0
  0
LINE
  5
49
  8
0
  6
CONTINUOUS
 62
     7
 10
144.0628657635
 20
190.1607276396
 30
0.0
 11
141.6628657635
 21
190.1607276396
 31
0.0
  0
LINE
  5
4A
  8
0
  6
CONTINUOUS
 62
     7
 10
18.4628657635
 20
190.1607276396
 30
0.0
 11
16.0628657635
 21
190.1607276396
 31
0.0
  0
LINE
  5
4B
  8
0
  6
CONTINUOUS
 62
     7
 10
16.0628657635
 20
186.1607276396
 30
0.0
 11
18.4628657635
 21
186.1607276396
 31
0.0
  0
LINE
  5
4C
  8
0
  6
CONTINUOUS
 62
     7
 10
141.6628657635
 20
186.1607276396
 30
0.0
 11
144.0628657635
 21
186.1607276396
 31
0.0
  0
LINE
  5
4D
  8
0
  6
CONTINUOUS
 62
     7
 10
141.7628657635
 20
191.5607276396
 30
0.0
 11
18.3628657635
 21
191.5607276396
 31
0.0
  0
LINE
  5
4E
  8
0
  6
CONTINUOUS
 62
     7
 10
18.3628657635
 20
196.3607276396
 30
0.0
 11
18.3628657635
 21
191.5607276396
 31
0.0
  0
LINE
  5
4F
  8
0
  6
CONTINUOUS
 62
     7
 10
141.7628657635
 20
196.3607276396
 30
0.0
 11
141.7628657635
 21
191.5607276396
 31
0.0
  0
LINE
  5
50
  8
0
  6
CONTINUOUS
 62
     7
 10
19.9628657635
 20
197.9607276396
 30
0.0
 11
140.1628657635
 21
197.9607276396
 31
0.0
  0
ARC
  5
51
  8
0
  6
CONTINUOUS
 62
     7
 10
140.1628657635
 20
196.3607276396
 30
0.0
 40
1.600000000000051
 50
0.0
 51
90.0
  0
ARC
  5
52
  8
0
  6
CONTINUOUS
 62
     7
 10
19.9628657635
 20
196.3607276396
 30
0.0
 40
1.600000000000058
 50
90.0
 51
180.0
  0
LINE
  5
53
  8
0
  6
CONTINUOUS
 62
     7
 10
141.6628657635
 20
191.5607276396
 30
0.0
 11
141.6628657635
 21
190.5607276396
 31
0.0
  0
LINE
  5
54
  8
0
  6
CONTINUOUS
 62
     7
 10
18.4628657635
 20
190.5607276396
 30
0.0
 11
18.4628657635
 21
191.5607276396
 31
0.0
  0
LINE
  5
55
  8
0
  6
CONTINUOUS
 62
     7
 10
18.4628657635
 20
184.5607276396
 30
0.0
 11
18.4628657635
 21
190.5607276396
 31
0.0
  0
LINE
  5
56
  8
0
  6
CONTINUOUS
 62
     7
 10
141.6628657635
 20
190.5607276396
 30
0.0
 11
141.6628657635
 21
184.5607276396
 31
0.0
  0
LINE
  5
57
  8
0
  6
CONTINUOUS
 62
     7
 10
19.4628657635
 20
183.5607276396
 30
0.0
 11
140.6628657635
 21
183.5607276396
 31
0.0
  0
ARC
  5
58
  8
0
  6
CONTINUOUS
 62
     7
 10
140.6628657635
 20
184.5607276396
 30
0.0
 40
1.0
 50
270.0
 51
0.0
  0
ARC
  5
59
  8
0
  6
CONTINUOUS
 62
     7
 10
19.4628657635
 20
184.5607276396
 30
0.0
 40
1.000000000000004
 50
180.0
 51
270.0
  0
LINE
  5
5A
  8
0
  6
CONTINUOUS
 62
     7
 10
144.0628657635
 20
173.7570224877
 30
0.0
 11
144.0628657635
 21
176.3017276396
 31
0.0
  0
LINE
  5
5B
  8
0
  6
CONTINUOUS
 62
     7
 10
144.8628657635
 20
176.3017276396
 30
0.0
 11
144.8628657635
 21
173.7570224877
 31
0.0
  0
LINE
  5
5C
  8
0
  6
CONTINUOUS
 62
     7
 10
15.2628657635
 20
176.3017276396
 30
0.0
 11
15.2628657635
 21
173.7570224877
 31
0.0
  0
LINE
  5
5D
  8
0
  6
CONTINUOUS
 62
     7
 10
16.0628657635
 20
176.3017276396
 30
0.0
 11
16.0628657635
 21
173.7570224877
 31
0.0
  0
LINE
  5
5E
  8
0
  6
CONTINUOUS
 62
     7
 10
144.0628657635
 20
176.3017276396
 30
0.0
 11
144.0628657635
 21
190.1775742777
 31
0.0
  0
LINE
  5
5F
  8
0
  6
CONTINUOUS
 62
     7
 10
144.8628657635
 20
190.1775742777
 30
0.0
 11
144.8628657635
 21
176.3017276396
 31
0.0
  0
LINE
  5
60
  8
0
  6
CONTINUOUS
 62
     7
 10
16.0628657635
 20
190.1775742777
 30
0.0
 11
16.0628657635
 21
176.3017276396
 31
0.0
  0
LINE
  5
61
  8
0
  6
CONTINUOUS
 62
     7
 10
15.2628657635
 20
190.1775742777
 30
0.0
 11
15.2628657635
 21
176.3017276396
 31
0.0
  0
LINE
  5
62
  8
0
  6
CONTINUOUS
 62
     7
 10
15.2628657635
 20
172.7607276396
 30
0.0
 11
16.0628657635
 21
172.7607276349
 31
0.0
  0
LINE
  5
63
  8
0
  6
CONTINUOUS
 62
     7
 10
16.0628657635
 20
173.7570224877
 30
0.0
 11
16.0628657635
 21
172.7607276349
 31
0.0
  0
LINE
  5
64
  8
0
  6
CONTINUOUS
 62
     7
 10
15.2628657635
 20
173.7570224877
 30
0.0
 11
15.2628657635
 21
172.7607276396
 31
0.0
  0
LINE
  5
65
  8
0
  6
CONTINUOUS
 62
     7
 10
144.0628657635
 20
172.7607276349
 30
0.0
 11
144.8628657635
 21
172.7607276396
 31
0.0
  0
LINE
  5
66
  8
0
  6
CONTINUOUS
 62
     7
 10
144.0628657635
 20
172.7607276349
 30
0.0
 11
144.0628657635
 21
173.7570224877
 31
0.0
  0
LINE
  5
67
  8
0
  6
CONTINUOUS
 62
     7
 10
144.8628657635
 20
173.7570224877
 30
0.0
 11
144.8628657635
 21
172.7607276396
 31
0.0
  0
LINE
  5
68
  8
0
  6
CONTINUOUS
 62
     7
 10
144.0628657635
 20
190.1775742777
 30
0.0
 11
144.0628657635
 21
194.4328973586
 31
0.0
  0
LINE
  5
69
  8
0
  6
CONTINUOUS
 62
     7
 10
144.8628657635
 20
194.4328973586
 30
0.0
 11
144.8628657635
 21
190.1775742777
 31
0.0
  0
LINE
  5
6A
  8
0
  6
CONTINUOUS
 62
     7
 10
16.0628657635
 20
194.4328973586
 30
0.0
 11
16.0628657635
 21
190.1775742777
 31
0.0
  0
LINE
  5
6B
  8
0
  6
CONTINUOUS
 62
     7
 10
15.2628657635
 20
194.4328973586
 30
0.0
 11
15.2628657635
 21
190.1775742777
 31
0.0
  0
LINE
  5
6C
  8
0
  6
CONTINUOUS
 62
     7
 10
15.2628657635
 20
196.5607276396
 30
0.0
 11
16.0628657635
 21
196.5607276396
 31
0.0
  0
LINE
  5
6D
  8
0
  6
CONTINUOUS
 62
     7
 10
16.0628657635
 20
196.5607276396
 30
0.0
 11
16.0628657635
 21
194.4328973586
 31
0.0
  0
LINE
  5
6E
  8
0
  6
CONTINUOUS
 62
     7
 10
15.2628657635
 20
196.5607276396
 30
0.0
 11
15.2628657635
 21
194.4328973586
 31
0.0
  0
LINE
  5
6F
  8
0
  6
CONTINUOUS
 62
     7
 10
144.0628657635
 20
196.5607276396
 30
0.0
 11
144.8628657635
 21
196.5607276396
 31
0.0
  0
LINE
  5
70
  8
0
  6
CONTINUOUS
 62
     7
 10
144.0628657635
 20
194.4328973586
 30
0.0
 11
144.0628657635
 21
196.5607276396
 31
0.0
  0
LINE
  5
71
  8
0
  6
CONTINUOUS
 62
     7
 10
144.8628657635
 20
196.5607276396
 30
0.0
 11
144.8628657635
 21
194.4328973586
 31
0.0
  0
LINE
  5
72
  8
0
  6
CONTINUOUS
 62
     7
 10
16.0628657635
 20
196.5607276396
 30
0.0
 11
16.6628657635
 21
196.5607276396
 31
0.0
  0
LINE
  5
73
  8
0
  6
CONTINUOUS
 62
     7
 10
16.6628657635
 20
172.7607276349
 30
0.0
 11
16.0628657635
 21
172.7607276349
 31
0.0
  0
LINE
  5
74
  8
0
  6
CONTINUOUS
 62
     7
 10
143.4628657635
 20
196.5607276396
 30
0.0
 11
144.0628657635
 21
196.5607276396
 31
0.0
  0
LINE
  5
75
  8
0
  6
CONTINUOUS
 62
     7
 10
144.0628657635
 20
172.7607276349
 30
0.0
 11
143.4628657635
 21
172.7607276349
 31
0.0
  0
LINE
  5
76
  8
0
  6
CONTINUOUS
 62
     7
 10
24.8628657635
 20
183.5607276396
 30
0.0
 11
24.8628657635
 21
174.7607276396
 31
0.0
  0
ARC
  5
77
  8
0
  6
CONTINUOUS
 62
     7
 10
22.8628657635
 20
174.7607276396
 30
0.0
 40
2.00000000469575
 50
270.0
 51
0.0
  0
ARC
  5
78
  8
0
  6
CONTINUOUS
 62
     7
 10
20.8128657635
 20
180.6607276396
 30
0.0
 40
1.100000000000023
 50
270.0
 51
90.0
  0
LINE
  5
79
  8
0
  6
CONTINUOUS
 62
     7
 10
20.8128657635
 20
181.7607276396
 30
0.0
 11
20.0128657635
 21
181.7607276396
 31
0.0
  0
ARC
  5
7A
  8
0
  6
CONTINUOUS
 62
     7
 10
20.0128657635
 20
180.6607276396
 30
0.0
 40
1.100000000000023
 50
90.0
 51
270.0
  0
LINE
  5
7B
  8
0
  6
CONTINUOUS
 62
     7
 10
20.0128657635
 20
179.5607276396
 30
0.0
 11
20.8128657635
 21
179.5607276396
 31
0.0
  0
LINE
  5
7C
  8
0
  6
CONTINUOUS
 62
     7
 10
18.3754149769
 20
196.5607276396
 30
0.0
 11
16.6628657635
 21
196.5607276396
 31
0.0
  0
LINE
  5
7D
  8
0
  6
CONTINUOUS
 62
     7
 10
22.8628657635
 20
172.7607276349
 30
0.0
 11
16.6628657635
 21
172.7607276349
 31
0.0
  0
ARC
  5
7E
  8
0
  6
CONTINUOUS
 62
     7
 10
137.2628657635
 20
174.7607276396
 30
0.0
 40
2.00000000469575
 50
180.0
 51
270.0
  0
LINE
  5
7F
  8
0
  6
CONTINUOUS
 62
     7
 10
135.2628657635
 20
174.7607276396
 30
0.0
 11
135.2628657635
 21
183.5607276396
 31
0.0
  0
ARC
  5
80
  8
0
  6
CONTINUOUS
 62
     7
 10
140.1128657635
 20
180.6607276396
 30
0.0
 40
1.100000000000023
 50
270.0
 51
90.0
  0
LINE
  5
81
  8
0
  6
CONTINUOUS
 62
     7
 10
140.1128657635
 20
181.7607276396
 30
0.0
 11
139.3128657635
 21
181.7607276396
 31
0.0
  0
ARC
  5
82
  8
0
  6
CONTINUOUS
 62
     7
 10
139.3128657635
 20
180.6607276396
 30
0.0
 40
1.100000000000023
 50
90.0
 51
270.0
  0
LINE
  5
83
  8
0
  6
CONTINUOUS
 62
     7
 10
139.3128657635
 20
179.5607276396
 30
0.0
 11
140.1128657635
 21
179.5607276396
 31
0.0
  0
LINE
  5
84
  8
0
  6
CONTINUOUS
 62
     7
 10
143.4628657635
 20
196.5607276396
 30
0.0
 11
141.7503165502
 21
196.5607276396
 31
0.0
  0
LINE
  5
85
  8
0
  6
CONTINUOUS
 62
     7
 10
143.4628657635
 20
172.7607276349
 30
0.0
 11
137.2628657635
 21
172.7607276349
 31
0.0
  0
LINE
  5
86
  8
0
  6
CONTINUOUS
 62
     7
 10
144.0628657635
 20
110.3639977225
 30
0.0
 11
141.7628657635
 21
110.3639977225
 31
0.0
  0
LINE
  5
87
  8
0
  6
CONTINUOUS
 62
     7
 10
18.3628657635
 20
110.3639977225
 30
0.0
 11
16.0628657635
 21
110.3639977225
 31
0.0
  0
LINE
  5
88
  8
0
  6
CONTINUOUS
 62
     7
 10
16.0628657635
 20
106.3639977225
 30
0.0
 11
18.3628657635
 21
106.3639977225
 31
0.0
  0
LINE
  5
89
  8
0
  6
CONTINUOUS
 62
     7
 10
141.7628657635
 20
106.3639977225
 30
0.0
 11
144.0628657635
 21
106.3639977225
 31
0.0
  0
LINE
  5
8A
  8
0
  6
CONTINUOUS
 62
     7
 10
15.2628657635
 20
101.2395037119
 30
0.0
 11
16.0628657635
 21
101.2395037119
 31
0.0
  0
LINE
  5
8B
  8
0
  6
CONTINUOUS
 62
     7
 10
144.0628657635
 20
101.2395037119
 30
0.0
 11
144.8628657635
 21
101.2395037119
 31
0.0
  0
LINE
  5
8C
  8
0
  6
CONTINUOUS
 62
     7
 10
141.7628657635
 20
122.6639977225
 30
0.0
 11
141.7628657635
 21
46.7960485301
 31
0.0
  0
LINE
  5
8D
  8
0
  6
CONTINUOUS
 62
     7
 10
140.1628657635
 20
48.3960485301
 30
0.0
 11
141.7628657635
 21
46.7960485301
 31
0.0
  0
LINE
  5
8E
  8
0
  6
CONTINUOUS
 62
     7
 10
141.7628657635
 20
122.6639977225
 30
0.0
 11
140.1628657635
 21
121.0639977225
 31
0.0
  0
LINE
  5
8F
  8
0
  6
CONTINUOUS
 62
     7
 10
18.3628657635
 20
122.6639977225
 30
0.0
 11
141.7628657635
 21
122.6639977225
 31
0.0
  0
LINE
  5
90
  8
0
  6
CONTINUOUS
 62
     7
 10
18.3628657635
 20
122.6639977225
 30
0.0
 11
19.9628657635
 21
121.0639977225
 31
0.0
  0
LINE
  5
91
  8
0
  6
CONTINUOUS
 62
     7
 10
18.3628657635
 20
46.7960485301
 30
0.0
 11
18.3628657635
 21
122.6639977225
 31
0.0
  0
LINE
  5
92
  8
0
  6
CONTINUOUS
 62
     7
 10
19.9628657635
 20
48.3960485301
 30
0.0
 11
18.3628657635
 21
46.7960485301
 31
0.0
  0
LINE
  5
93
  8
0
  6
CONTINUOUS
 62
     7
 10
141.7628657635
 20
46.7960485301
 30
0.0
 11
18.3628657635
 21
46.7960485301
 31
0.0
  0
LINE
  5
94
  8
0
  6
CONTINUOUS
 62
     7
 10
22.8628657635
 20
127.7639977225
 30
0.0
 11
24.8628657635
 21
127.7639977225
 31
0.0
  0
LINE
  5
95
  8
0
  6
CONTINUOUS
 62
     7
 10
24.8628657635
 20
127.7639977225
 30
0.0
 11
24.8628657635
 21
126.9639977225
 31
0.0
  0
LINE
  5
96
  8
0
  6
CONTINUOUS
 62
     7
 10
24.8628657635
 20
126.9639977225
 30
0.0
 11
22.8628657635
 21
126.9639977225
 31
0.0
  0
LINE
  5
97
  8
0
  6
CONTINUOUS
 62
     7
 10
144.0628657635
 20
118.5639977225
 30
0.0
 11
144.0628657635
 21
126.3639977225
 31
0.0
  0
ARC
  5
98
  8
0
  6
CONTINUOUS
 62
     7
 10
143.4628657635
 20
126.3639977225
 30
0.0
 40
0.6000000000000227
 50
0.0
 51
90.0
  0
LINE
  5
99
  8
0
  6
CONTINUOUS
 62
     7
 10
143.4628657635
 20
126.9639977225
 30
0.0
 11
137.2628657635
 21
126.9639977225
 31
0.0
  0
LINE
  5
9A
  8
0
  6
CONTINUOUS
 62
     7
 10
137.2628657635
 20
127.7639977225
 30
0.0
 11
143.4628657635
 21
127.7639977225
 31
0.0
  0
ARC
  5
9B
  8
0
  6
CONTINUOUS
 62
     7
 10
143.4628657635
 20
126.3639977225
 30
0.0
 40
1.400000000000006
 50
0.0
 51
90.0
  0
LINE
  5
9C
  8
0
  6
CONTINUOUS
 62
     7
 10
144.8628657635
 20
126.3639977225
 30
0.0
 11
144.8628657635
 21
118.5639977225
 31
0.0
  0
LINE
  5
9D
  8
0
  6
CONTINUOUS
 62
     7
 10
135.2628657635
 20
126.9639977225
 30
0.0
 11
135.2628657635
 21
127.7639977225
 31
0.0
  0
LINE
  5
9E
  8
0
  6
CONTINUOUS
 62
     7
 10
135.2628657635
 20
127.7639977225
 30
0.0
 11
137.2628657635
 21
127.7639977225
 31
0.0
  0
LINE
  5
9F
  8
0
  6
CONTINUOUS
 62
     7
 10
137.2628657635
 20
126.9639977225
 30
0.0
 11
135.2628657635
 21
126.9639977225
 31
0.0
  0
LINE
  5
A0
  8
0
  6
CONTINUOUS
 62
     7
 10
22.8628657635
 20
126.9639977225
 30
0.0
 11
16.6628657635
 21
126.9639977225
 31
0.0
  0
ARC
  5
A1
  8
0
  6
CONTINUOUS
 62
     7
 10
16.6628657635
 20
126.3639977225
 30
0.0
 40
0.6000000000000227
 50
90.0
 51
180.0
  0
LINE
  5
A2
  8
0
  6
CONTINUOUS
 62
     7
 10
16.0628657635
 20
126.3639977225
 30
0.0
 11
16.0628657635
 21
118.5639977225
 31
0.0
  0
LINE
  5
A3
  8
0
  6
CONTINUOUS
 62
     7
 10
15.2628657635
 20
126.3639977225
 30
0.0
 11
15.2628657635
 21
118.5639977225
 31
0.0
  0
ARC
  5
A4
  8
0
  6
CONTINUOUS
 62
     7
 10
16.6628657635
 20
126.3639977225
 30
0.0
 40
1.400000000000013
 50
90.0
 51
180.0
  0
LINE
  5
A5
  8
0
  6
CONTINUOUS
 62
     7
 10
16.6628657635
 20
127.7639977225
 30
0.0
 11
22.8628657635
 21
127.7639977225
 31
0.0
  0
LINE
  5
A6
  8
0
  6
CONTINUOUS
 62
     7
 10
15.2628657635
 20
118.5639977225
 30
0.0
 11
15.2628657635
 21
106.3707160261
 31
0.0
  0
LINE
  5
A7
  8
0
  6
CONTINUOUS
 62
     7
 10
16.0628657635
 20
118.5639977225
 30
0.0
 11
16.0628657635
 21
106.3707160261
 31
0.0
  0
LINE
  5
A8
  8
0
  6
CONTINUOUS
 62
     7
 10
144.8628657635
 20
118.5639977225
 30
0.0
 11
144.8628657635
 21
106.3707160261
 31
0.0
  0
LINE
  5
A9
  8
0
  6
CONTINUOUS
 62
     7
 10
144.0628657635
 20
106.3707160261
 30
0.0
 11
144.0628657635
 21
118.5639977225
 31
0.0
  0
LINE
  5
AA
  8
0
  6
CONTINUOUS
 62
     7
 10
15.2628657635
 20
106.3707160261
 30
0.0
 11
15.2628657635
 21
102.9711715163
 31
0.0
  0
LINE
  5
AB
  8
0
  6
CONTINUOUS
 62
     7
 10
16.0628657635
 20
106.3707160261
 30
0.0
 11
16.0628657635
 21
102.9711715163
 31
0.0
  0
LINE
  5
AC
  8
0
  6
CONTINUOUS
 62
     7
 10
144.8628657635
 20
106.3707160261
 30
0.0
 11
144.8628657635
 21
102.9711715163
 31
0.0
  0
LINE
  5
AD
  8
0
  6
CONTINUOUS
 62
     7
 10
144.0628657635
 20
102.9711715163
 30
0.0
 11
144.0628657635
 21
106.3707160261
 31
0.0
  0
LINE
  5
AE
  8
0
  6
CONTINUOUS
 62
     7
 10
15.2628657635
 20
102.9711715163
 30
0.0
 11
15.2628657635
 21
101.2575977225
 31
0.0
  0
LINE
  5
AF
  8
0
  6
CONTINUOUS
 62
     7
 10
16.0628657635
 20
102.9711715163
 30
0.0
 11
16.0628657635
 21
101.2575977225
 31
0.0
  0
LINE
  5
B0
  8
0
  6
CONTINUOUS
 62
     7
 10
144.8628657635
 20
102.9711715163
 30
0.0
 11
144.8628657635
 21
101.2575977225
 31
0.0
  0
LINE
  5
B1
  8
0
  6
CONTINUOUS
 62
     7
 10
144.0628657635
 20
101.2575977225
 30
0.0
 11
144.0628657635
 21
102.9711715163
 31
0.0
  0
LINE
  5
B2
  8
0
  6
CONTINUOUS
 62
     7
 10
15.2628657635
 20
101.2575977225
 30
0.0
 11
15.2628657635
 21
101.2395037119
 31
0.0
  0
LINE
  5
B3
  8
0
  6
CONTINUOUS
 62
     7
 10
16.0628657635
 20
101.2575977225
 30
0.0
 11
16.0628657635
 21
101.2395037119
 31
0.0
  0
LINE
  5
B4
  8
0
  6
CONTINUOUS
 62
     7
 10
144.8628657635
 20
101.2575977225
 30
0.0
 11
144.8628657635
 21
101.2395037119
 31
0.0
  0
LINE
  5
B5
  8
0
  6
CONTINUOUS
 62
     7
 10
144.0628657635
 20
101.2395037119
 30
0.0
 11
144.0628657635
 21
101.2575977225
 31
0.0
  0
ARC
  5
B6
  8
0
  6
CONTINUOUS
 62
     7
 10
173.5269392723
 20
196.3607276396
 30
0.0
 40
1.599999999999995
 50
90.0
 51
172.8192442185
  0
LINE
  5
B7
  8
0
  6
CONTINUOUS
 62
     7
 10
173.5269392723
 20
197.9607276396
 30
0.0
 11
246.1948884647
 21
197.9607276396
 31
0.0
  0
ARC
  5
B8
  8
0
  6
CONTINUOUS
 62
     7
 10
246.1948884647
 20
196.3607276396
 30
0.0
 40
1.60000000000008
 50
0.0
 51
90.0
  0
LINE
  5
B9
  8
0
  6
CONTINUOUS
 62
     7
 10
247.7948884647
 20
191.5607276396
 30
0.0
 11
191.2503857247
 21
191.5607276396
 31
0.0
  0
LINE
  5
BA
  8
0
  6
CONTINUOUS
 62
     7
 10
247.7948884647
 20
196.3607276396
 30
0.0
 11
247.7948884647
 21
191.5607276396
 31
0.0
  0
LINE
  5
BB
  8
0
  6
CONTINUOUS
 62
     7
 10
243.2307868496
 20
183.5607276396
 30
0.0
 11
192.4369015634
 21
183.5607276396
 31
0.0
  0
ARC
  5
BC
  8
0
  6
CONTINUOUS
 62
     7
 10
243.2307868496
 20
184.5607276396
 30
0.0
 40
1.000000000000008
 50
270.0
 51
330.0
  0
LINE
  5
BD
  8
0
  6
CONTINUOUS
 62
     7
 10
247.5609138685
 20
190.0607276396
 30
0.0
 11
244.0968122534
 21
184.0607276396
 31
0.0
  0
ARC
  5
BE
  8
0
  6
CONTINUOUS
 62
     7
 10
246.6948884647
 20
190.5607276396
 30
0.0
 40
1.0
 50
330.0
 51
0.0
  0
LINE
  5
BF
  8
0
  6
CONTINUOUS
 62
     7
 10
247.6948884647
 20
191.5607276396
 30
0.0
 11
247.6948884647
 21
190.5607276396
 31
0.0
  0
ARC
  5
C0
  8
0
  6
CONTINUOUS
 62
     7
 10
176.0269392723
 20
160.5607276396
 30
0.0
 40
36.0
 50
70.2021709788
 51
90.0
  0
ARC
  5
C1
  8
0
  6
CONTINUOUS
 62
     7
 10
186.4589691681
 20
189.5402506214
 30
0.0
 40
5.200000000000002
 50
7.04
 51
70.2021709788
  0
LINE
  5
C2
  8
0
  6
CONTINUOUS
 62
     7
 10
191.6197654785
 20
190.1775742777
 30
0.0
 11
193.3333392723
 21
176.3017276396
 31
0.0
  0
ARC
  5
C3
  8
0
  6
CONTINUOUS
 62
     7
 10
190.9514332829
 20
176.0075782598
 30
0.0
 40
2.400000000000007
 50
290.3259722805
 51
7.04
  0
ARC
  5
C4
  8
0
  6
CONTINUOUS
 62
     7
 10
186.2273269106
 20
188.7607276349
 30
0.0
 40
16.0
 50
269.9986118724
 51
290.3259722805
  0
LINE
  5
C5
  8
0
  6
CONTINUOUS
 62
     7
 10
186.2269392723
 20
172.7607276396
 30
0.0
 11
168.2269392723
 21
172.7607276396
 31
0.0
  0
LINE
  5
C6
  8
0
  6
CONTINUOUS
 62
     7
 10
168.2269392723
 20
196.5607276396
 30
0.0
 11
176.0269392723
 21
196.5607276396
 31
0.0
  0
LINE
  5
C7
  8
0
  6
CONTINUOUS
 62
     7
 10
166.8269392723
 20
172.7607276396
 30
0.0
 11
166.8269392723
 21
196.5607276396
 31
0.0
  0
LINE
  5
C8
  8
0
  6
CONTINUOUS
 62
     7
 10
166.8269392723
 20
196.5607276396
 30
0.0
 11
168.2269392723
 21
196.5607276396
 31
0.0
  0
LINE
  5
C9
  8
0
  6
CONTINUOUS
 62
     7
 10
168.2269392723
 20
172.7607276396
 30
0.0
 11
166.8269392723
 21
172.7607276396
 31
0.0
  0
ARC
  5
CA
  8
0
  6
CONTINUOUS
 62
     7
 10
474.6655605303
 20
174.3007622927
 30
0.0
 40
1.599999999999667
 50
254.2640264133
 51
279.3165725114
  0
LINE
  5
CB
  8
0
  6
CONTINUOUS
 62
     7
 10
469.3923520207
 20
196.5607276396
 30
0.0
 11
461.322505914
 21
245.7511208176
 31
0.0
  0
ARC
  5
CC
  8
0
  6
CONTINUOUS
 62
     7
 10
462.9014002052
 20
246.0101436293
 30
0.0
 40
1.600000000000061
 50
99.3165725114
 51
189.3165725113
  0
LINE
  5
CD
  8
0
  6
CONTINUOUS
 62
     7
 10
467.3790602674
 20
248.3661063557
 30
0.0
 11
475.9458335357
 21
196.1466538705
 31
0.0
  0
LINE
  5
CE
  8
0
  6
CONTINUOUS
 62
     7
 10
475.1614553786
 20
172.7607276396
 30
0.0
 11
474.924583342
 21
172.7218680014
 31
0.0
  0
LINE
  5
CF
  8
0
  6
CONTINUOUS
 62
     7
 10
462.6423773935
 20
247.5890379206
 30
0.0
 11
467.3790602674
 21
248.3661063557
 31
0.0
  0
ARC
  5
D0
  8
0
  6
CONTINUOUS
 62
     7
 10
468.5439473824
 20
247.4425057877
 30
0.0
 40
0.9999999999999881
 50
69.3165725113
 51
99.3165725113
  0
LINE
  5
D1
  8
0
  6
CONTINUOUS
 62
     7
 10
468.897151639
 20
248.3780520202
 30
0.0
 11
475.378806069
 21
245.9309811487
 31
0.0
  0
LINE
  5
D2
  8
0
  6
CONTINUOUS
 62
     7
 10
467.3952491931
 20
248.2674254625
 30
0.0
 11
468.3820581251
 21
248.4293147198
 31
0.0
  0
ARC
  5
D3
  8
0
  6
CONTINUOUS
 62
     7
 10
475.0256018125
 20
244.9954349162
 30
0.0
 40
1.000000000000068
 50
9.3165725113
 51
69.3165725113
  0
LINE
  5
D4
  8
0
  6
CONTINUOUS
 62
     7
 10
476.0124107445
 20
245.1573241736
 30
0.0
 11
484.5186799391
 21
193.3066791152
 31
0.0
  0
ARC
  5
D5
  8
0
  6
CONTINUOUS
 62
     7
 10
470.5014002052
 20
160.5607276396
 30
0.0
 40
35.99999999999999
 50
70.2021709788
 51
90.0
  0
ARC
  5
D6
  8
0
  6
CONTINUOUS
 62
     7
 10
480.933430101
 20
189.5402506214
 30
0.0
 40
5.200000000000044
 50
7.04
 51
70.2021709788
  0
LINE
  5
D7
  8
0
  6
CONTINUOUS
 62
     7
 10
486.0942264114
 20
190.1775742777
 30
0.0
 11
487.8078002052
 21
176.3017276396
 31
0.0
  0
ARC
  5
D8
  8
0
  6
CONTINUOUS
 62
     7
 10
485.4258942158
 20
176.0075782598
 30
0.0
 40
2.400000000000013
 50
290.3259722805
 51
7.04
  0
ARC
  5
D9
  8
0
  6
CONTINUOUS
 62
     7
 10
480.7017878436
 20
188.7607276349
 30
0.0
 40
16.0
 50
269.9986118724
 51
290.3259722805
  0
LINE
  5
DA
  8
0
  6
CONTINUOUS
 62
     7
 10
480.7014002052
 20
172.7607276396
 30
0.0
 11
462.7014002052
 21
172.7607276396
 31
0.0
  0
LINE
  5
DB
  8
0
  6
CONTINUOUS
 62
     7
 10
462.7014002052
 20
196.5607276396
 30
0.0
 11
470.5014002052
 21
196.5607276396
 31
0.0
  0
LINE
  5
DC
  8
0
  6
CONTINUOUS
 62
     7
 10
461.3014002052
 20
172.7607276396
 30
0.0
 11
461.3014002052
 21
196.5607276396
 31
0.0
  0
LINE
  5
DD
  8
0
  6
CONTINUOUS
 62
     7
 10
461.3014002052
 20
196.5607276396
 30
0.0
 11
462.7014002052
 21
196.5607276396
 31
0.0
  0
LINE
  5
DE
  8
0
  6
CONTINUOUS
 62
     7
 10
462.7014002052
 20
172.7607276396
 30
0.0
 11
461.3014002052
 21
172.7607276396
 31
0.0
  0
LINE
  5
DF
  8
0
  6
CONTINUOUS
 62
     7
 10
271.6103025727
 20
191.5607276396
 30
0.0
 11
274.6011928028
 21
191.5607276396
 31
0.0
  0
LINE
  5
E0
  8
0
  6
CONTINUOUS
 62
     7
 10
277.5557476877
 20
191.5607276396
 30
0.0
 11
387.9557476877
 21
191.5607276396
 31
0.0
  0
LINE
  5
E1
  8
0
  6
CONTINUOUS
 62
     7
 10
390.9103025727
 20
191.5607276396
 30
0.0
 11
393.9011928028
 21
191.5607276396
 31
0.0
  0
LINE
  5
E2
  8
0
  6
CONTINUOUS
 62
     7
 10
272.6557476877
 20
197.9607276396
 30
0.0
 11
392.8557476877
 21
197.9607276396
 31
0.0
  0
ARC
  5
E3
  8
0
  6
CONTINUOUS
 62
     7
 10
392.8557476877
 20
196.3607276396
 30
0.0
 40
1.599999999999937
 50
7.1807557815
 51
90.0
  0
ARC
  5
E4
  8
0
  6
CONTINUOUS
 62
     7
 10
272.6557476877
 20
196.3607276396
 30
0.0
 40
1.5999999999999
 50
90.0
 51
172.8192442185
  0
LINE
  5
E5
  8
0
  6
CONTINUOUS
 62
     7
 10
387.9557476877
 20
183.5607276396
 30
0.0
 11
277.5557476877
 21
183.5607276396
 31
0.0
  0
LINE
  5
E6
  8
0
  6
CONTINUOUS
 62
     7
 10
267.9557476877
 20
172.7607276396
 30
0.0
 11
267.9557476877
 21
196.5607276396
 31
0.0
  0
LINE
  5
E7
  8
0
  6
CONTINUOUS
 62
     7
 10
267.9557476877
 20
196.5607276396
 30
0.0
 11
269.3557476877
 21
196.5607276396
 31
0.0
  0
LINE
  5
E8
  8
0
  6
CONTINUOUS
 62
     7
 10
269.3557476877
 20
172.7607276396
 30
0.0
 11
267.9557476877
 21
172.7607276396
 31
0.0
  0
LINE
  5
E9
  8
0
  6
CONTINUOUS
 62
     7
 10
273.5057476877
 20
181.7607276396
 30
0.0
 11
272.7057476877
 21
181.7607276396
 31
0.0
  0
ARC
  5
EA
  8
0
  6
CONTINUOUS
 62
     7
 10
272.7057476877
 20
180.6607276396
 30
0.0
 40
1.100000000000023
 50
90.0
 51
270.0
  0
LINE
  5
EB
  8
0
  6
CONTINUOUS
 62
     7
 10
272.7057476877
 20
179.5607276396
 30
0.0
 11
273.5057476877
 21
179.5607276396
 31
0.0
  0
ARC
  5
EC
  8
0
  6
CONTINUOUS
 62
     7
 10
273.5057476877
 20
180.6607276396
 30
0.0
 40
1.100000000000023
 50
270.0
 51
90.0
  0
ARC
  5
ED
  8
0
  6
CONTINUOUS
 62
     7
 10
275.5557476877
 20
194.5607276396
 30
0.0
 40
2.0
 50
0.0
 51
90.0
  0
LINE
  5
EE
  8
0
  6
CONTINUOUS
 62
     7
 10
277.5557476877
 20
194.5607276396
 30
0.0
 11
277.5557476877
 21
174.7607276396
 31
0.0
  0
ARC
  5
EF
  8
0
  6
CONTINUOUS
 62
     7
 10
275.5557476877
 20
174.7607276396
 30
0.0
 40
2.0
 50
270.0
 51
0.0
  0
LINE
  5
F0
  8
0
  6
CONTINUOUS
 62
     7
 10
273.5057476877
 20
192.7607276396
 30
0.0
 11
272.7057476877
 21
192.7607276396
 31
0.0
  0
ARC
  5
F1
  8
0
  6
CONTINUOUS
 62
     7
 10
272.7057476877
 20
191.6607276396
 30
0.0
 40
1.099999999999994
 50
90.0
 51
270.0
  0
LINE
  5
F2
  8
0
  6
CONTINUOUS
 62
     7
 10
272.7057476877
 20
190.5607276396
 30
0.0
 11
273.5057476877
 21
190.5607276396
 31
0.0
  0
ARC
  5
F3
  8
0
  6
CONTINUOUS
 62
     7
 10
273.5057476877
 20
191.6607276396
 30
0.0
 40
1.099999999999994
 50
270.0
 51
90.0
  0
LINE
  5
F4
  8
0
  6
CONTINUOUS
 62
     7
 10
275.5557476877
 20
196.5607276396
 30
0.0
 11
269.3557476877
 21
196.5607276396
 31
0.0
  0
LINE
  5
F5
  8
0
  6
CONTINUOUS
 62
     7
 10
275.5557476877
 20
172.7607276396
 30
0.0
 11
269.3557476877
 21
172.7607276396
 31
0.0
  0
ARC
  5
F6
  8
0
  6
CONTINUOUS
 62
     7
 10
389.9557476877
 20
174.7607276396
 30
0.0
 40
2.0
 50
180.0
 51
270.0
  0
LINE
  5
F7
  8
0
  6
CONTINUOUS
 62
     7
 10
387.9557476877
 20
174.7607276396
 30
0.0
 11
387.9557476877
 21
194.5607276396
 31
0.0
  0
ARC
  5
F8
  8
0
  6
CONTINUOUS
 62
     7
 10
389.9557476877
 20
194.5607276396
 30
0.0
 40
2.0
 50
90.0
 51
180.0
  0
LINE
  5
F9
  8
0
  6
CONTINUOUS
 62
     7
 10
396.1557476877
 20
196.5607276396
 30
0.0
 11
389.9557476877
 21
196.5607276396
 31
0.0
  0
LINE
  5
FA
  8
0
  6
CONTINUOUS
 62
     7
 10
396.1557476877
 20
172.7607276396
 30
0.0
 11
389.9557476877
 21
172.7607276396
 31
0.0
  0
LINE
  5
FB
  8
0
  6
CONTINUOUS
 62
     7
 10
392.8057476877
 20
181.7607276396
 30
0.0
 11
392.0057476877
 21
181.7607276396
 31
0.0
  0
ARC
  5
FC
  8
0
  6
CONTINUOUS
 62
     7
 10
392.0057476877
 20
180.6607276396
 30
0.0
 40
1.100000000000023
 50
90.0
 51
270.0
  0
LINE
  5
FD
  8
0
  6
CONTINUOUS
 62
     7
 10
392.0057476877
 20
179.5607276396
 30
0.0
 11
392.8057476877
 21
179.5607276396
 31
0.0
  0
ARC
  5
FE
  8
0
  6
CONTINUOUS
 62
     7
 10
392.8057476877
 20
180.6607276396
 30
0.0
 40
1.100000000000023
 50
270.0
 51
90.0
  0
LINE
  5
FF
  8
0
  6
CONTINUOUS
 62
     7
 10
392.8057476877
 20
192.7607276396
 30
0.0
 11
392.0057476877
 21
192.7607276396
 31
0.0
  0
ARC
  5
100
  8
0
  6
CONTINUOUS
 62
     7
 10
392.0057476877
 20
191.6607276396
 30
0.0
 40
1.099999999999994
 50
90.0
 51
270.0
  0
LINE
  5
101
  8
0
  6
CONTINUOUS
 62
     7
 10
392.0057476877
 20
190.5607276396
 30
0.0
 11
392.8057476877
 21
190.5607276396
 31
0.0
  0
ARC
  5
102
  8
0
  6
CONTINUOUS
 62
     7
 10
392.8057476877
 20
191.6607276396
 30
0.0
 40
1.099999999999994
 50
270.0
 51
90.0
  0
LINE
  5
103
  8
0
  6
CONTINUOUS
 62
     7
 10
397.5557476877
 20
196.5607276396
 30
0.0
 11
397.5557476877
 21
172.7607276396
 31
0.0
  0
LINE
  5
104
  8
0
  6
CONTINUOUS
 62
     7
 10
396.1557476877
 20
196.5607276396
 30
0.0
 11
397.5557476877
 21
196.5607276396
 31
0.0
  0
LINE
  5
105
  8
0
  6
CONTINUOUS
 62
     7
 10
397.5557476877
 20
172.7607276396
 30
0.0
 11
396.1557476877
 21
172.7607276396
 31
0.0
  0
ENDSEC
  0
EOF
